Seether - Fuck It Chords & Tabs

 

Fuck It Chords & Tabs

Seether Chords & Tabs

Version: 1 Type: Tab 0 ratings
1 star 2 stars 3 stars 4 stars 5 stars
comments

Fuck It Tab

   
|----Artist-:-Seether-----|
|-----Song-:-***-It------|
|---Album-:-Disclaimer----|
|-------Track-:-11--------|
|--Released-:-20-Aug-2002-|
|-Done-By-:-Paul-Cassells-|

Tuning: 	D	(Dropped D)
	  	A
		D
		G
		B
		E

/ Slide
h hammer


There are two ways to play this intro, you just gotta choose the
one which you find easiest.

Inro + Verse

Its either this...

|----------------------------------------------------------|
|----------------------------------------------------------|
|----------------------------------------------------------|
|----------------------------------------------------------|
|----8---8---8---9---9---6-------8---8---8---9---9---9/11--|
|--8---8---8---8---8---8-------8---8---8---8---8---8-------|

Or This...
[ Tab from: http://www.guitartabs.cc/tabs/s/seether/fuck_it_tab.html ]
|---------------------------------------------------------|
|---------------------------------------------------------|
|---------------------------------------------------------|
|----3---3---3---4---4---1-------3---3---3---4---4---3/5--|
|--1---1---1---1---1---1-------1---1---1---1---1---1------|
|---------------------------------------------------------|

Chorus
Ok, I'm not too sure about this one but here it is anyway
|-------------------|
|-------------------|
|-------------------|
|--0h1-0h1-3p1-0h1--|
|--0h1-0h1-3p1-0h1--|
|--0h1-0h1-3p1-0h1--|
You have to play them quickly so that by the time he starts the
next "*** it" you start over again

Bridge
|---------------------------------------------------------|
|---------------------------------------------------------|
|---------------------------------------------------------|
|--0-0-0-0-1/3---0-0-0-0-1/3---0-0-0-0-1/3---0-0-0-0-3/1--|
|--0-0-0-0-1/3---0-0-0-0-1/3---0-0-0-0-1/3---0-0-0-0-3/1--|
|--0-0-0-0-1/3---0-0-0-0-1/3---0-0-0-0-1/2---0-0-0-0-3/1--|

I'm not too confident about this one, except the intro, that i'm
pretty sure about. If you can do better, e-mail me.

Any problems or queries or any of that ***...
E-mail : Paulc4me@hotmail.com
Thanks
-Fieta-
Comments