Seether - Fine Again Chords & Tabs

 

Fine Again Chords & Tabs

Seether Chords & Tabs

Version: 8 Type: Tab 0 ratings
1 star 2 stars 3 stars 4 stars 5 stars
comments

Fine Again Tab

SONG title- Fine Again
ARTIST- Seether
Tuning- Standard

NOTE: This song is preformed on a 7 string but the way i play it
 ,it just is a higher sound but it still sounds good even on a six string.

INTRO/VERSES
------------------------------------------------------------------------
------------------------------------------------------------------------
----------4--------------------7---------------------------------------
--------4--------------------7---------7--------5---------------------
------2-----2,4-----------5---------7--------5-----------------------
-------------------------------------5------3--------------------------REPEAT
[ Tab from: http://www.guitartabs.cc/tabs/s/seether/fine_again_tab_ver_8.html ]
CHORUS
------------------------------------------------------------------------
------------------------------------------------------------------------  
----4------------------------------------------------------------------
----4-----5-----2----7------------------------------------------------
----2-----5-----2----7------------------------------------------------
---------- 3----------5------------------------------------------------REPEAT


This song is a great song along with there other ones its really really easy 
to play too ounce you get the hang of it. Put some distortion on the Chorus 
and nothing on the verses and it sounds wicked.

Any Questions email me at

Wizardfanalec89@aol.com
Comments