Seether - Fine Again Chords & Tabs

 

Fine Again Chords & Tabs

Seether Chords & Tabs

Version: 3 Type: Tab 1 rating
1 star 2 stars 3 stars 4 stars 5 stars
comments

Fine Again Tab

Fine Again By Seether
Tabbed by Mike N.

Intro clean
4)------9------7-----5--4-x--4--4
5)---9------7------5----4-x--4--4
6)-7------5------3------2-x--2--2

Verse riff (8 times) clean 
4)-4-4-xxxx--7-7--2-2-xxxx--9-9
5)-4-4-xxxx--7-7--2-2-xxxx--9-9
6)-2-2-xxxx--5-5--0-0-xxxx--7-7

Chorus Riff- The chorus riff is the verse riff without the mutes and with distortion just listen to the song for timing
[ Tab from: http://www.guitartabs.cc/tabs/s/seether/fine_again_tab_ver_3.html ]
Interlude (the little part after 2nd chorus)
5)-5~~~s2~~~s5~~~s2~~~s5~~~s2~~~s5~~~s2-----
hit the string when u slide 

Solo (played by guitar 2) repeat as many times as needed
2)-14---15---14---15-----
3)----14---14---14---14--  
every so often it changes to
2)-14---15---14---16---15---14-------
3)----14---14---14---14---14---14----

that should be it
any ?s comments hate mail death threats send to metallicamike333@yahoo.com
Comments