Seether - Fine Again Chords & Tabs

 

Fine Again Chords & Tabs

Seether Chords & Tabs

Version: 16 Type: Tab 0 ratings
1 star 2 stars 3 stars 4 stars 5 stars
comments

Fine Again Tab

Seether - Fine again 
Made by GuanoFan (guano_fan@iol.pt)
This is my first tab. But I'm pretty sure it's totally right. 
This song of Seether is DAMN easy to play! If you're a newbie, you should play this one!

Standard Tunning [EADGBe]

INTRO [0:00]

Gutar 1 (lead) 
e|-----------------------------------------------------------|
B|-----------------------------------------------------------|
G|-----------------------------------------------------------| 2x
D|-----4--------7------2----7-7-7----------------------------|
A|---4---4----7---7------2--7-7-7----------------------------|
E|-2--------5-------0-------5-5-5----------------------------|

Guitar 2
e|----------------------------|------------------------------|
B|--9---9--9---9--9---9--10---|---9---9--10---10--9---9------|
G|----9------9------9---------|-----9-------9-------9---11---| sometimes played
D|----------------------------|------------------------------| in the middle of
A|----------------------------|------------------------------| the song
E|----------------------------|------------------------------|

Guitar 3 (just rithm)
e|-----------------------------------------------------------|
B|-----------------------------------------------------------|
G|-----------------------------------------------------------|
D|-4-4-4-4--7-7-7-7--2-2-2-2--7-7-7--------------------------|
A|-4-4-4-4--7-7-7-7--2-2-2-2--7-7-7--------------------------|
E|-2-2-2-2--5-5-5-5--0-0-0-0--5-5-5--------------------------|

VERSE 1 [0:11]
[ Tab from: http://www.guitartabs.cc/tabs/s/seether/fine_again_tab_ver_16.html ]
Guitar 1
e|-----------------------------------------------------------|
B|-----------------------------------------------------------|
G|--------------------7-7-7-7--------------------------------|
D|-4-4--7-7-7-7--2-2--7-7-7-7--------------------------------|
A|-4-4--7-7-7-7--2-2--5-5-5-5--------------------------------|
E|-2-2--5-5-5-5--0-0-----------------------------------------|

CHORUS [0:54]

Guitar 1 play with distortion
e|-----------------------------------------------------------|
B|-----------------------------------------------------------|
G|------7-7-7-7--4-4-----------------------------------------|
D|-4-4--7-7-7-7--4-4--2-2-2-2--4-4---------------------------|
A|-4-4--5-5-5-5--2-2--2-2-2-2--4-4---------------------------|
E|-2-2----------------0-0-0-0--2-2---------------------------|

VERSE 2 (same as VERSE 1 with 1x INTRO of Guitar 1) [1.16]

BRIDGE [2:21]

e|-----------------------------------------------------------|
B|-----------------------------------------------------------|
G|-----------------------------------------------------------|
D|-----------------------------------------------------------|
A|-2/5----5/2----2/5----5/2----2/5----5/2----2/5----5/2------|
E|-----------------------------------------------------------|

OUTRO [2:43]

Guitar 1
e|-----------------------------------------------------------|
B|-----------------------------------------------------------|
G|------7-7-7-7--4-4-4-4-------------------------------------|
D|-4-4--7-7-7-7--4-4-4-4--2-2-2-2--4-4-----------------------|
A|-4-4--5-5-5-5--2-2-2-2--2-2-2-2--4-4-----------------------|
E|-2-2--------------------0-0-0-0--2-2-----------------------|

Guitar 2 (play with distortion, maybe a little wah...)
e|-9----10----9----10----9----10----12----11-----------------|
B|---11----11---11----11---11----11----11----11--------------|
G|-----------------------------------------------------------|
D|-----------------------------------------------------------|
A|-----------------------------------------------------------|
E|-----------------------------------------------------------|
Comments