Seether - Fine Again Chords & Tabs

 

Fine Again Chords & Tabs

Seether Chords & Tabs

Version: 12 Type: Tab 0 ratings
1 star 2 stars 3 stars 4 stars 5 stars
comments

Fine Again Tab

   
-----------------------------------------------------------------------------
			   FINE AGAIN - Seether
-----------------------------------------------------------------------------
Tabbed by: Bristlehead
Email: beisenberger@cox.net

Tuning: Standard

I'm sure I've got this perfect.

Intro (Guitar 1 Clean)
e|----------------------------------------------------------------|
B|----------------------------------------------------------------|
G|------------------1----2---2----------------------1----2---2--xx|
D|---4------7--xx----2---0---0--xx---4------7--xx----2---0---0--xx|
A|--4------7---xx-----2\(0)--0--xx--4------7---xx-----2\(0)--0--xx|
E|-2--2/(5)----xx--0------------xx-2--2/(5)----xx--0--------------|

Intro (Guitar 2 Clean)
e|---0------0------0-----------------0--------0------0------------|
B|-9---9--9---9--9---9--10---------9---9--10----10-9---9--7-------|
G|----------------------------------------------------------------|
D|----------------------------------------------------------------|
A|----------------------------------------------------------------|
E|----------------------------------------------------------------|

Verse 1 (Guitar 1 Clean)
e|------------------------------------------------|
B|------------------------------------------------|
G|-----------------------------------2--2--xx-----|  Play
D|-4--4--4-xx-/7--7--xx--2--2--2-xx--0--0--xx-----|   4x
A|-4--4--4-xx-/7--7--xx--2--2--2-xx--0--0--xx-----|
E|-2--2--2-xx-/5--5--xx--0--0--0-xx---------------|

(Guitar 1 Clean)
e|--------------------------------------------------------------------------|
B|--------------------------------------------------------------------------|
G|---------------------------2-2-xx---------------------------------2--2--xx|
D|-4-4-4-xx-/7-7-xx-2-2-2-xx-0-0-xx-4-4-4-xx-/7--7--xx--2--2--2-xx--0--0--xx|
A|-4-4-4-xx-/7-7-xx-2-2-2-xx-0-0-xx-4-4-4-xx-/7--7--xx--2--2--2-xx--0--0--xx|
E|-2-2-2-xx-/5-5-xx-0-0-0-xx--------2-2-2-xx-/5--5--xx--0--0--0-xx----------|

(Guitar 2 Clean)
e|----------9-------------7-------------------9-----------------7-----------|
B|---------(9)-------------------------------(9)----------------------------|
G|--------------------------------------------------------------------------|
D|--------------------------------------------------------------------------|
A|--------------------------------------------------------------------------|
E|--------------------------------------------------------------------------|

(Guitar 1 Clean)                                              (DISTORTION)
e|--------------------------------------------------------------------------|
B|--------------------------------------------------------------------------|
G|---------------------------2-2-xx---------------------------------2--2--2-|
D|-4-4-4-xx-/7-7-xx-2-2-2-xx-0-0-xx-4-4-4-xx-/7--7--xx--2--2--xxxx--0--0--0-|
A|-4-4-4-xx-/7-7-xx-2-2-2-xx-0-0-xx-4-4-4-xx-/7--7--xx--2--2--xxxx--0--0--0-|
E|-2-2-2-xx-/5-5-xx-0-0-0-xx--------2-2-2-xx-/5--5--xx--0--0--xxxx----------|

(Guitar 2 Clean)
e|---0------0------0------------------0--------0------0---------------------|
B|-9---9--9---9--9---9--10----------9---9--10----10-9---9--7----------------|
G|--------------------------------------------------------------------------|
D|--------------------------------------------------------------------------|
A|--------------------------------------------------------------------------|
E|--------------------------------------------------------------------------|

Chorus (Both Guitars Distortion) *Notice the difference from the verse*
e|--------------------------------------------------------|
B|--------------------------------------------------------|
G|--------------------------------------------------------|  Play
D|--4--4--4--44--7--7--7--4--4--4--44--2--2--2------------|   4x
A|--2--4--4--44--7--7--7--4--4--4--44--2--2--2------------|
E|--2--2--2--22--5--5--5--2--2--2--22--0--0--0------------|

Transition (Guitar 1 Clean)
e|---------------------------------|
B|---------------------------------|
G|------------------1----2---2-----|
D|---4------7--xx----2---0---0--xx-|
A|--4------7---xx-----2\(0)--0--xx-|
E|-2--2/(5)----xx--0------------xx-|

Verse 2 (Guitar 1 Clean)
e|--------------------------------------------------------------------------|
B|--------------------------------------------------------------------------|
G|---------------------------2-2-xx---------------------------------2--2--xx|
D|-4-4-4-xx-/7-7-xx-2-2-2-xx-0-0-xx-4-4-4-xx-/7--7--xx--2--2--2-xx--0--0--xx|
A|-4-4-4-xx-/7-7-xx-2-2-2-xx-0-0-xx-4-4-4-xx-/7--7--xx--2--2--2-xx--0--0--xx|
E|-2-2-2-xx-/5-5-xx-0-0-0-xx--------2-2-2-xx-/5--5--xx--0--0--0-xx----------|

(Guitar 1 Clean)
e|----------------------------------|
B|----------------------------------|
G|---------------------------2-2-xx-| 
D|-4-4-4-xx-/7-7-xx-2-2-2-xx-0-0-xx-|
A|-4-4-4-xx-/7-7-xx-2-2-2-xx-0-0-xx-|
E|-2-2-2-xx-/5-5-xx-0-0-0-xx--------|

(Guitar 2 Clean)
e|---0------0------0----------------|
B|-9---9--9---9--9---9--10----------|
G|----------------------------------|
D|----------------------------------|
A|----------------------------------|
E|----------------------------------|

(Guitar 1 Clean)
e|--------------------------------------------------------------------------|
B|--------------------------------------------------------------------------|
G|---------------------------2-2-xx---------------------------------2--2--xx|
D|-4-4-4-xx-/7-7-xx-2-2-2-xx-0-0-xx-4-4-4-xx-/7--7--xx--2--2--2-xx--0--0--xx|
A|-4-4-4-xx-/7-7-xx-2-2-2-xx-0-0-xx-4-4-4-xx-/7--7--xx--2--2--2-xx--0--0--xx|
E|-2-2-2-xx-/5-5-xx-0-0-0-xx--------2-2-2-xx-/5--5--xx--0--0--0-xx----------|
[ Tab from: http://www.guitartabs.cc/tabs/s/seether/fine_again_tab_ver_12.html ]
(Guitar 2 Clean)
e|----------9-------------7-------------------9-----------------7-----------|
B|---------(9)-------------------------------(9)----------------------------|
G|--------------------------------------------------------------------------|
D|--------------------------------------------------------------------------|
A|--------------------------------------------------------------------------|
E|--------------------------------------------------------------------------|

(Guitar 1 Clean)                                              (DISTORTION)
e|--------------------------------------------------------------------------|
B|--------------------------------------------------------------------------|
G|---------------------------2-2-xx---------------------------------2--2--2-|
D|-4-4-4-xx-/7-7-xx-2-2-2-xx-0-0-xx-4-4-4-xx-/7--7--xx--2--2--xxxx--0--0--0-|
A|-4-4-4-xx-/7-7-xx-2-2-2-xx-0-0-xx-4-4-4-xx-/7--7--xx--2--2--xxxx--0--0--0-|
E|-2-2-2-xx-/5-5-xx-0-0-0-xx--------2-2-2-xx-/5--5--xx--0--0--xxxx----------|

(Guitar 2 Clean)
e|---0------0------0------------------0--------0------0---------------------|
B|-9---9--9---9--9---9--10----------9---9--10----10-9---9--7----------------|
G|--------------------------------------------------------------------------|
D|--------------------------------------------------------------------------|
A|--------------------------------------------------------------------------|
E|--------------------------------------------------------------------------|

Chorus (Both Guitars Distortion)
e|--------------------------------------------------------|
B|--------------------------------------------------------|
G|--------------------------------------------------------|  Play
D|--4--4--4--44--7--7--7--4--4--4--44--2--2--2------------|   4x
A|--2--4--4--44--7--7--7--4--4--4--44--2--2--2------------|
E|--2--2--2--22--5--5--5--2--2--2--22--0--0--0------------|

Bridge (Guitar 1 Distortion)
e|-------------------------------------------------------------------|
B|-------------------------------------------------------------------|
G|-------------------------------------------------------------------|
D|-------------------------------------------------------------------|
A|--5-----------5-\-2-----------2-/-5-----------5-\-2-----------2-/--|
E|-------------------------------------------------------------------|

Bridge (Guitar 2 Clean)
e|-------------------------------------------------------------------|
B|-------------------------------------------------------------------|
G|------7-----7---7-----4-----4---4-----7-----7---7-----4-----4---4--|
D|----7-----7---------4-----4---------7-----7---------4-----4--------|
A|--5-----5-----5---2-----2-----2---5-----5-----5---2-----2-----2----|
E|-------------------------------------------------------------------|

(Guitar 1 Distortion)
e|-------------------------------------------------------------------|
B|-------------------------------------------------------------------|
G|-------------------------------------------------------------------|
D|-------------------------------------------------------------------|
A|/-5-----------5-\-2-----------2-/-5-----------5-\-x----------------|
E|-------------------------------------------------------------------|

(Guitar 2 Clean)
e|-------------------------------------------------------------------|
B|-------------------------------------------------------------------|
G|------7-----7---7-----4-----4---4-----7-----7---7------------------|
D|----7-----7---------4-----4---------7-----7------------------------|
A|--5-----5-----5---2-----2-----2---5-----5-----5---(2)~~------------|
E|-------------------------------------------------------------------|

Transition and Chorus Until the Ending (Guitar 1 Distortion)
e|--------------------------------------------------------|
B|--------------------------------------------------------|
G|--------------------------------------------------------|  Play
D|--4--4--4--44--7--7--7--4--4--4--44--2--2--2------------|  11x
A|--2--4--4--44--7--7--7--4--4--4--44--2--2--2------------|
E|--2--2--2--22--5--5--5--2--2--2--22--0--0--0------------|

Transition and Chorus Until the Ending (Guitar 2 Distortion, but not as much
as Guitar 1...This part is the harder to tab)

e|--9--10--9--10--9--10--9--10--9--10--9--10--9--10--9--10----|
B|---10--10-10--10-10--10-10--10-10--10-10--10-10--10-10--10--|

e|--9--10--9--10--9--10--9--10--9--10--9--10--9--10--12--10----|
B|---10--10-10--10-10--10-10--10-10--10-10--10-10--10--10--10--|

e|--9--10--9--10--9--10--9--10--9--10--9--10--9--10--12--10----|
B|---10--10-10--10-10--10-10--10-10--10-10--10-10--10--10--10--|

e|--9--10--12--10---9--10--12--10--9--10--12--10--9--10--12--10----|
B|---10--10--10--10--10--10--10--10-10--10--10--10-10--10--10--10--|

e|--9--10--9--10--9--10--12--10--9--10--9--10--9--10--12--10----|
B|---10--10-10--10-10--10--10--10-10--10-10--10-10--10--10--10--|

e|--12-12-12-12-12-12-12-12-12-12-12-12-12-12-12-12----|
B|-----------------------------------------------------|

e|--12-12-12-12-12-12-12-12-12-12-12-12-12-12-12-12----|
B|-----------------------------------------------------|

Outtro (Guitar 1 Distortion)
e|--------------------------------------------------------------------------|
B|--------------------------------------------------------------------------|
G|--------------------------------------------------------------------------|
D|--4------------------------------------Hold-and-Fade--..*feedback*..------|
A|--4-----------------------------------------------------------------------|
E|--2-----------------------------------------------------------------------|

Outtro (Guitar 2 Distortion)
e|--9-----------------------------------------------------------------------|
B|---10---------------------------------------------------------------------|
G|---------------------------------------Hold-and-Fade----------------------|
D|--------------------------------------------------------------------------|
A|--------------------------------------------------------------------------|
E|--------------------------------------------------------------------------|




And that's it.  I like to know if my tabs please people, so please send me and
-mail if you think it's good :)
Comments