Seether - Fine Again Chords & Tabs

 

Fine Again Chords & Tabs

Seether Chords & Tabs

Version: 1 Type: Tab 0 ratings
1 star 2 stars 3 stars 4 stars 5 stars
comments

Fine Again Tab

   
Artist: Seether
Title: Fine Again
Album:
Transcribed by:
Tuning: Drop-D

/-slide

Intro x2:
(guitar 1)
			^ v
e-----2-------0---------0-----------------------
b-----------------------------------------------
g-----------------------1-----------------------
D-----4---------7-x-x-----2-2/0-0-0-------------
A---4---------7---x-x-------2/0-0-0-------------
D-4-----4/7-7-----x-x-2-----2/0-0-0-------------

(guitar 2)
()-guitar 1 *hint for starting point
e--------2-4-0-4-4-0-4-5---4-0-4-5-0-5-4-0-4-2--
b-----------------------------------------------
g-----------------------------------------------
D-----------------------------------------------
A----(4)----------------------------------------
E-(4)-------------------------------------------

Verse:
(Guitar 1&2-strumming)
  F# Am E  D
e-----------------------------------------------
b-----------------------------------------------
g-----------------------------------------------
D-4--7--2--0------------------------------------
A-4--7--2--0------------------------------------
E-4--7--2--0------------------------------------

Pre-chorus:
(guitar 1)
*same as the verse)

(guitar 2)
e-----9-7---9-7—-2-4-0-4-4-0-4-5—-4-0-4-5--0-4-5--0-4-2---
b---------------------------------------------------------
g---------------------------------------------------------
D---------------------------------------------------------
A---------------------------------------------------------
E---------------------------------------------------------
[ Tab from: http://www.guitartabs.cc/tabs/s/seether/fine_again_tab.html ]
Chorus:
(guitar 1&2-strumming)

e-----------------------------------------------
b-----------------------------------------------
g-----------------------------------------------
D--4--0--9--2-----------------------------------
A--4--0--9--2-----------------------------------
E--4--0--9--2-----------------------------------

Verse 2:
(guitar 1)

e-----------------------------------------------
b-----------------------------------------------
g-----------------------1-----------------------
D-----4---------7-x-x-----2-2/0-0-0-------------
A---4---------7---x-x-------2/0-0-0-------------
D-4-----4/7-7-----x-x-2-----2/0-0-0-------------

--back to strumming…

Pre-Chorus

Chorus

Bridge:
(guitar 1)

-x4
e-----------------------------------------------
b-----------------------------------------------
g-----------------------------------------------
D-----------------------------------------------
A-----------------------------------------------
D-9/12—12\9-------------------------------------

(guitar 1-strum chorus)
(guitar 2-)

-until ending
e-9----10---------------------------------------
b---10----12------------------------------------
g-----------------------------------------------
D-----------------------------------------------
A-----------------------------------------------
D-----------------------------------------------
-during the last 2 times he will sing the chorus, 
 you can just play with the scale…it doesn’t have to be 
 precisely like this…its you choice.

If you have any questions e-mail me at---mbanaria@hotmail.com

Tnx.
Comments