Seether - Fine Again Chords & Tabs

 

Fine Again Chords & Tabs

Seether Chords & Tabs

Version: 2 Type: Bass Tab 0 ratings
1 star 2 stars 3 stars 4 stars 5 stars
comments

Fine Again Bass Tab

   
-------------------------------------------------------------------------------
			     Fine Again - Seether
-------------------------------------------------------------------------------

By:zero
standard tunning, BEADG, yeah, thats right, 5 string bass guitar.

|intro|
G|----------------------|
D|----------------------|
A|----------------------|
E|-2--2/5--0-0--------0-|
B|--------------5-3-3---|
[ Tab from: http://www.guitartabs.cc/tabs/s/seether/fine_again_btab_ver_2.html ]
|verse|
G|---------------------------------------|
D|---------------------------------------|
A|---------------------------------------|
E|-2-2-2--x--5-5-5--x-x------------------|
B|-----------------------5-5-5--x--3-3-3-|


|chrous|
G|----------------------------------------|
D|----------------------------------------|
A|----------------------------------------|
E|-2-2-2--x-x-----------------------------|
B|-------------3-3-3--0-0-0--x--5-5-5-5-5-|

|bridge|
G|-------------------|
D|-------------------|
A|-5-5/2-2-2/5-5-5/2-|
E|-------------------|
B|-------------------|


===============================================================================
Comments