Seether - Fine Again Chords & Tabs

 

Fine Again Chords & Tabs

Seether Chords & Tabs

Version: 1 Type: Bass Tab 1 rating
1 star 2 stars 3 stars 4 stars 5 stars
comments

Fine Again Bass Tab

   
www.guitartabs.cc
Tabber:stanthemantbb
Seether
Fine Again
 Dropped D-tuning

 Verse                          
G|------------------------------------------|
D|------------------------------------------|
A|---------------------------5-5-5-4--------| 
D|-4---4--7-7-7-7-2-2-2---------------------|

  Chorus
[ Tab from: http://www.guitartabs.cc/tabs/s/seether/fine_again_btab.html ]
Verse                          
G|------------------------------------------|
D|------------------------------------------|
A|------------5-5-5h-7-5-2-2----------------| 
D|-4---4--4-----------------------2-2-2-----|

Pre-chorus
                      
G|------------------------------------------|
D|-12-----12/--9----9/----------------------|
A|------------------------------------------| 
D|------------------------------------------|

Intro no bass
Verse x8
Chorus x4
Verse x8
Chorus x4
Pre-chorus x5
Chorus x4


Enjoy it because I love Seether...Hope their drummer dies so i can join them.I play everything
guitar,bass,and drums of course I am better at that.
Comments