Seether - Fade Away Chords & Tabs

 

Fade Away Chords & Tabs

Seether Chords & Tabs

Version: 3 Type: Tab 0 ratings
1 star 2 stars 3 stars 4 stars 5 stars
comments

Fade Away Tab

   
hey,this is another one of Seether's good songs called
Fade Away.Its on the song called Disclaimer.Rate this 
tab..its in standard tuning RATE IT
im giving you the name of the note above it...

Intro - bass line/guitar
-F-F-B-F-C-B-F-B-G-G-B-G-C-B-G-B-
e---------------------------------
b---------------------------------
g---------------------------------
d---------------------------------
a-----2---3-2---2-----2---3-2---2-
E-1-1---1-----1---3-3---3-----3---

  F/A-A-A-A-A/-B-B-B-B-B/C-C-C-C/D
e-----------------------------------
b-----------------------------------
g-----------------------------------
d-----------------------------------
a-----------------------------------
E-1/5-5-5-5-5/7-7-7-7-7-7/8-8-8-8/10

played after first bass line
--D---A
e-10---
b----10
g------
d------
a------
E------
played during 2nd bass line
 Am
e---
B-1-
G-2-
d-2-
a---
E---

Verse 1
-F--C--F-C-G-B-B-BhCpB-G-A-C-DpC-A-A-C-G
e---------------------------------------
b---1----1---0-0-0h1p0-----1-3h1-----1--
g----------0-----------0-2-------2-2---0
d-3----3--------------------------------
a---------------------------------------
E---------------------------------------

Chorus 1
  G-G-G-G-F-F-F-Am(x3)-C(x4)
e-3-3-3-3-1-1-1--------------
B-3-3-3-3-1-1-1-1-1-1-1-1-1-1
g---------2-2-2-2-2-2--------
d---------3-3-3-2-2-2-2-2-2-2
a-2-2-2-2-------------3-3-3-3
E-3-3-3-3--------------------

pre-2ndverse(after Am played from verse)
  BhC BhC C d C B BhCpB
e----------------------
B-0h1-0h1-1-3-1-0-0h1p0
g----------------------
d----------------------
a----------------------
E----------------------

Verse 2
 F--C--F-C-G-B-B-BhCpB-G-A-C-DpC-A-A-C-G
e---------------------------------------
b---1----1---0-0-0h1p0-----1-3h1-----1--
g----------0-----------0-2-------2-2---0
d-3----3--------------------------------
a---------------------------------------
E---------------------------------------

Pre-2ndChorus
 A-A-A-A-B-B-B-B-C-C-C-C-d-d-d-d
e--------------------------------
b--------------------------------
g--------------------------------
d-2-2-2-2-4-4-4-4-5-5-5-5-7-7-7-7
A-0-0-0-0-2-2-2-2-3-3-3-3-5-5-5-5
E--------------------------------
[ Tab from: http://www.guitartabs.cc/tabs/s/seether/fade_away_tab_ver_3.html ]
Chorus 2
 G-G-G-G-G-G-F-F-F-F--A-A-A-A-A-C-C-C-C
e--------------------------------------
b--------------------------------------
g--------------------------------------
d---------------------2-2-2-2-2-5-5-5-5
A-5-5-5-5-5-5-3-3-3-3-0-0-0-0-0-3-3-3-3
E-3-3-3-3-3-3-1-1-1-1------------------

Right Before breakdown
 A-A-A-A-B-B-B-B-C-C-C-C-d-d-d-d
e--------------------------------
b--------------------------------
g--------------------------------
d-2-2-2-2-4-4-4-4-5-5-5-5-7-7-7-7
A-0-0-0-0-2-2-2-2-3-3-3-3-5-5-5-5
E--------------------------------

Breakdown
  E-E-E-E-E-d
e------------
b------------
G-4-4-4-4-4-2
d-2-2-2-2-2-0
a------------
E------------

 C-C-C-C-C-C-C-C-C-C-C-C-d-A
e----------------------------
b----------------------------
g----------------------------
d-5-5-5-5-5-5-5-5-5-5-5-5-7-2
A-3-3-3-3-3-3-3-3-3-3-3-3-5-0
E----------------------------


Solo
  G-G-G-G-G-G-A-A-A-A-A-A-A-A-A/B-B-B-B-B-B-B-B-B
e------------------------------------------------
B-8-8-8-8-8-8-10-10-10-10-10-10/12-12-12-12-12-12
g------------------------------------------------
d------------------------------------------------
a------------------------------------------------
E------------------------------------------------

  B--C--C--B--G-C--B--G-G-G-G-G-G-G-G-G-G-G
e-------------------------------------------
B-12-13-13-12-8-13-12-8-8-8-8-8-8-8-8-8-8-8-
g-------------------------------------------
d-------------------------------------------
a-------------------------------------------
E-------------------------------------------

  E-E-E-E-F#(x5)     G-G-G-G-G--A--A--A--A--A
e--------------------------------------------
b-5-5-5-5-7-7-7-7-7--8-8-8-8-8-10-10-10-10-10
g--------------------------------------------
d--------------------------------------------
a--------------------------------------------
E--------------------------------------------

Chorus 3
 G-G-G-G-G-G-F-F-F-F--A-A-A-A-A-C-C-C-C
e--------------------------------------
b--------------------------------------
g--------------------------------------
d---------------------2-2-2-2-2-5-5-5-5
A-5-5-5-5-5-5-3-3-3-3-0-0-0-0-0-3-3-3-3
E-3-3-3-3-3-3-1-1-1-1------------------

I cant really hear the ending,so if anyone knows the
ending or has any corrections click the correct tab
button at the top...
Comments