Seether - Driven Under Chords & Tabs

 

Driven Under Chords & Tabs

Seether Chords & Tabs

Version: 7 Type: Tab 0 ratings
1 star 2 stars 3 stars 4 stars 5 stars
comments

Driven Under Tab

   
                ***              SEETHER                 ***
                ***            DRIVEN UNDER              ***
                ***             DISCLAIMER               ***

Hey,this is my second or third tab on this site,I tried to do this song in
Standard tuning,i know a lot of people have made good tabs in drop D tuning,but i
hope im making a good tab in standard.Any corrections click on "correct this tab"
at the top and tell me what you think.


INTRO(x2) -clean-
e---0--0---0--0--0--0--0--0-0--0--
b----------------------------3--3-
g--2--2--2---2-2---2--2--2--------
D-3--3--3---3-3-3 2--2--2-----2--2
A---------------------------------
E---------------------------------

VERSE -clean-
e---0--0---0--0--0--0--0--0--
b----------------------------
g--2--2--2---2-2---2--2--2---
D-3--3--3---3-3-3 2--2--2--2-
A----------------------------
E----------------------------

PRECHORUS -distortion-
e--------
b--------
g--------
D-X-X-X-X
A-X-X-X-X
E-X-X-X-X

CHORUS(x2) -distortion-
e--------------------------------
b--------------------------------
g--------------------------------
D---------2-2-2-2----------------
A-3-3-3-3-0-0-0-0-3-3-3-3-2-2-2-2
E-1-1-1-1---------1-1-1-1-0-0-0-0

PREVERSE(2nd verse) -light distortion-
e-----------
b-----------
g---9-7/12/9
D-7----------
A------------
E------------

2nd VERSE -clean-
e---0--0---0--0--0--0--0--0--
b----------------------------
g--2--2--2---2-2---2--2--2---
D-3--3--3---3-3-3 2--2--2--2-
A----------------------------
E----------------------------

2nd chorus(x2) distortion-
e--------------------------------
b--------------------------------
g--------------------------------
D---------2-2-2-2----------------
A-3-3-3-3-0-0-0-0-3-3-3-3-2-2-2-2
E-1-1-1-1---------1-1-1-1-0-0-0-0
[ Tab from: http://www.guitartabs.cc/tabs/s/seether/driven_under_tab_ver_7.html ]
INTERLUDE(x4) -not correct amount of strumming- -distortion-
e---------------------------------------------------------------
b---------------------------------------------------------------
g-7-7-7-7-7--x-x--5-5-5-5-5--x-x-------------x-x----------------
D-7-7-7-7-7--x-x--5-5-5-5-5--x-x--5-5-5-5-5--x-x--5-5-5-5-5--3-3
A-5-5-5-5-5--x-x--3-3-3-3-3--x-x--3-3-3-3-3--x-x--5-5-5-5-5--3-3
E---------------------------------3-3-3-3-3--x-x--3-3-3-3-3--1-1

AFTER INTERLUDE-distortion-
E-1-1/5-5/1 

3rd CHORUS -light distortion-                END ON -light distortion-  
e--------------------------------            e--
b--------------------------------            b--
g--------------------------------            g--
D---------2-2-2-2----------------            D-2
A-3-3-3-3-0-0-0-0-3-3-3-3-2-2-2-2            A-2
E-1-1-1-1---------1-1-1-1-0-0-0-0            E-0

LYRICS:
Do you think Im faking
when Im lying next to you?
Do you think that I am blind
nothing left for me to lose?
Must be something on your mind
something lost and left behind 
Do you know Im faking now?

Do you know Im faking 
when Im lying next to you?
Do you know that I am blind to everything you ever do?
Must be something on your mind
something lost for me to find
Do you know Im faking?

Then she told me she had a gun
it sounded like shed used it once before on him 
Then she told me she had a gun
it sounded like shed used it once before, oh man

I guess you know Im faking
when I tell you I love you
I guess you know that I am blind 
to everything you say and do 
Must be something on my mind
theres nothing left for me to hide
Do you know Im faking?

Then she told me she had a gun
it sounded like shed used it once before on him 
Then she told me she had a gun
it sounded like shed used it once before, oh man

We have to succumb to the feelings we can never face
I need you. I breathe you.
I cant go through this all again. 
We have to succumb to 
the feelings we can never face I need you. 
I breathe you. I cant go through this

Then she told me she had a gun
it sounded like shed used it once before

Then she told me she had a gun
it sounded like shed used it once before on him
Then she told me she had a gun
it sounded like shed used it once before, oh man 
Then she told me she had a gun
she says she wants to use it on me now
Comments