Seether - Driven Under Chords & Tabs

 

Driven Under Chords & Tabs

Seether Chords & Tabs

Version: 6 Type: Tab 0 ratings
1 star 2 stars 3 stars 4 stars 5 stars
comments

Driven Under Tab

   
Seether: “Driven Under”
Tabbed by lateralus_84

Key:
X = mute strings with fingering hand (gives “chicka chicka” sound)
\ or / = slide


Intro
E|----0----0----0----0----0-------0----0----0-----0-----0--------|
B|--------------------------------------------3-----3------------|
G|--2----2----2----2----2-------2----2----2-----2-----2----------|X2
D|3----3----3----3----3----0--2----2----2-----------------0------|
A|---------------------------------------------------------------|
E|---------------------------------------------------------------|

Verse1 (repeat as necessary in all verses)
E|----0----0----0----0----0-------0----0----0----0----0----------|
B|---------------------------------------------------------------|
G|--2----2----2----2----2-------2----2----2----2----2------------|
D|3----3----3----3----3----0--2----2----2----2----2-----0--------|
A|---------------------------------------------------------------|
E|---------------------------------------------------------------|

Chorus (strumming not shown, listen to song), (repeat as necessary)
E|-----------------------------------------------0---------------|
B|---------------------------------------------0-----------------|
G|---------------------------------------------------------------|
D|-x-x-x--3-3-3-3-3/7-7-7-7-7\3-3-3-3-3\2-2-2-2----2-2-2---------|
A|-x-x-x--3-3-3-3-3/7-7-7-7-7\3-3-3-3-3\2-2-2-2----2-2-2---------|
E|-x-x-x--1-1-1-1-1/5-5-5-5-5\1-1-1-1-1\0-0-0-0----0-0-0---------|
   ^play x’s only on first time                ^high notes here are
                                                faint(listen to song)   
[ Tab from: http://www.guitartabs.cc/tabs/s/seether/driven_under_tab_ver_6.html ]
Verse 2 intro
E|----0----0----0----0----0-------0----0----0-----0-----0--------|
B|--------------------------------------------3-----3------------|
G|--2----2----2----2----2-------2----2----2-----2-----2----------|X2
D|3----3----3----3----3----0--2----2----2-----------------0------|
A|---------------------------------------------------------------|
E|---------------------------------------------------------------|
  (on verse 2, second time, instead of playing an open E-string at the
   end, play on the B-string, 5th fret and slide down for the fading
   effect)  After the intro, he plays some weird sounding stuff,
   probably x’s, but I’m not sure.  Then he just continues the verse
   with the Verse 1 rhythm)

Bridge (“we have to… succumb to…”)
E|---------------------------------------------------------------|
B|---------------------------------------------------------------|
G|-7-7-7-7-7-x-5-5-5-5-5-x-5-5-5-5-5-x---------------------------|X3
D|-7-7-7-7-7-x-5-5-5-5-5-x-5-5-5-5-5-x-5-5-5-5-5-3---------------|
A|-5-5-5-5-5-x-3-3-3-3-3-x-3-3-3-3-3-x-5-5-5-5-5-3---------------|
E|-5-5-5-5-5-x-3-3-3-3-3-x-3-3-3-3-3-x-3-3-3-3-3-1---------------|




After bridge
E|---------------------------------------------------------------|
B|---------------------------------------------------------------|
G|---------------------------------------------------------------|
D|---------------------------------------------------------------|
A|---------------------------------------------------------------|
E|-1-1/5-5\1-----------------------------------------------------|

Outro: Chorus chords are strummed with light distortion and end on
       E(022).

That’s all, you can figure out the song order, it’s not hard.
Comments