Seether - Driven Under Chords & Tabs

 

Driven Under Chords & Tabs

Seether Chords & Tabs

Version: 4 Type: Tab 0 ratings
1 star 2 stars 3 stars 4 stars 5 stars
comments

Driven Under Tab

#----------------------------------PLEASE NOTE---------------------------------#
#This file is the author's own work and represents their interpretation of the #
#song. You may only use this file for private study, scholarship, or research. #
#------------------------------------------------------------------------------##

Artist: Seether
Album: Disclaimer
Song: Driven Under
Tabber: Brad

Intro:

E|----0----0----0----0----0--------0----0---0-----0-----0----|
B|--------------------------------------------3-----3--------|
G|--2----2----2----2----2-------2----2----2-----2-----2------|X2
D|3----3----3----3----3----0--2----2----2-----------------0--|
A|-----------------------------------------------------------|
D|-----------------------------------------------------------|

Verse1
E|----0----0----0----0----0--------0----0---0----0----0------|
B|-----------------------------------------------------------|
G|--2----2----2----2----2-------2----2----2----2----2--------|
D|3----3----3----3----3----0--2----2----2----2----2----0-----|X4
A|-----------------------------------------------------------|
D|-----------------------------------------------------------|

Verse2
E|----0----0----0----0----0--------0----0---0----0----0------|
B|-----------------------------------------------------------|
G|--2----2----2----2----2-------2----2----2----2----2--------|
D|3----3----3----3----3----0--2----2----2----2----2----0-----|X3
A|-----------------------------------------------------------|
D|-----------------------------------------------------------|

E|----0----0----0----0----0--------0----0---0----0|
B|------------------------------------------------|
G|--2----2----2----2----2-------2----2----2----2--|
D|3----3----3----3----3----0--2----2----2----2----|
A|------------------------------------------------|
D|------------------------------------------------|

Chorus1
 |--P.M--|
E|-------|-------------------------------------------|
B|-------|-------------------------------------------|
G|-------|-------------------------------------------|
D|0-0-5-5|3--3--3--3--7--7--7--7--3--3--3--3--2--2--2|
A|0-0-5-5|3--3--3--3--7--7--7--7--3--3--3--3--2--2--2|
D|0-0-5-5|3--3--3--3--7--7--7--7--3--3--3--3--2--2--2|

 |--P.M--|
E|-------|----------------------------------------------|
B|-------|----------------------------------------------|
G|-------|----------------------------------------------|
D|0-0-5-5|3--3--3--3--7--7--7--7--3--3--3--3--2--2--2--2|
A|0-0-5-5|3--3--3--3--7--7--7--7--3--3--3--3--2--2--2--2|
D|0-0-5-5|3--3--3--3--7--7--7--7--3--3--3--3--2--2--2--2|

Solo Piece
Guitar1
E|----0----0----0----0----0--------0----0---0-----0-----0----|
B|--------------------------------------------3-----3--------|
G|--2----2----2----2----2-------2----2----2-----2-----2------|
D|3----3----3----3----3----0--2----2----2-----------------0--|
A|-----------------------------------------------------------|
D|-----------------------------------------------------------|

Guitar2
E|-----------|
B|-----------| I don't know if this solo part is correct coz it sounds
G|5b--3--5---| like Shaun is using a Phaser/Flanger
D|----------7|
A|-----------|
D|-----------|

Guitar 1
E|----0----0----0----0----0--------0----0---0-----0-----0----|
B|--------------------------------------------3-----3--------|
G|--2----2----2----2----2-------2----2----2-----2-----2------|
D|3----3----3----3----3----0--2----2----2-----------------0--|
A|-----------------------------------------------------------|
D|-----------------------------------------------------------|

Guitar 2
E|--------------|
B|--------------| When you bend the 8th fret, wait about 1 sec then bend
G|8b--7--7/11--8| it up slowly to achieve that phaser type sound, it you
D|--------------| don't have the fx pedal.
A|--------------|
D|--------------|

Verse 3
E|--0------0------0------0|
B|--0------0------0------0|
G|--2------2------2------2|This is the part where you can clearly hear
D|3------2------3------2--|the bass guitar
A|------------------------|
D|------------------------|

E|----0----0----0----0----0--------0----0---0----0----0------|
B|-----------------------------------------------------------|
G|--2----2----2----2----2-------2----2----2----2----2--------|
D|3----3----3----3----3----0--2----2----2----2----2----0-----|
A|-----------------------------------------------------------|
D|-----------------------------------------------------------|
[ Tab from: http://www.guitartabs.cc/tabs/s/seether/driven_under_tab_ver_4.html ]
E|----0----0----0----0----0--------0----0---0----0|
B|------------------------------------------------|
G|--2----2----2----2----2-------2----2----2----2--|
D|3----3----3----3----3----0--2----2----2----2----|
A|------------------------------------------------|
D|------------------------------------------------|

Chorus3
E|-------|----------------------------------------------|
B|-------|----------------------------------------------|
G|-------|----------------------------------------------|
D|0-0-5-5|3--3--3--3--7--7--7--7--3--3--3--3--2--2--2--2|
A|0-0-5-5|3--3--3--3--7--7--7--7--3--3--3--3--2--2--2--2|
D|0-0-5-5|3--3--3--3--7--7--7--7--3--3--3--3--2--2--2--2|

E|----------------------------------------------|
B|----------------------------------------------|
G|----------------------------------------------|
D|3--3--3--3--7--7--7--7--3--3--3--3--2--2--2--2|
A|3--3--3--3--7--7--7--7--3--3--3--3--2--2--2--2|
D|3--3--3--3--7--7--7--7--3--3--3--3--2--2--2--2|

interlude
E|------------------------------------------------------------|
B|------------------------------------------------------------|
G|7-7-7-7-7--x-x--5-5-5-5-5--x-x--5-5-5-5-5--x-x--------------|X4
D|7-7-7-7-7--x-x--5-5-5-5-5--x-x--5-5-5-5-5--x-x--5-5-5-5-5--3|
A|5-5-5-5-5--x-x--3-3-3-3-3--x-x--3-3-3-3-3--x-x--5-5-5-5-5--3|
D|--------------------------------3-3-3-3-3--x-x--5-5-5-5-5--3|

pre-chorus
					     |--P.M--|	 
E|----------------------|----------|-------|
B|----------------------|----------|-------|
G|----------------------|----------|-------|
D|----------------------|----------|-0-0--0|
A|----------------------|----------|-0-0--0|
D|3-----3--3/7----7/3-3-|----------|-0-0--0|

Chorus 4
E|----------------------------------------------|
B|----------------------------------------------|
G|----------------------------------------------|
D|3--3--3--3--7--7--7--7--3--3--3--3--2--2--2--2|
A|3--3--3--3--7--7--7--7--3--3--3--3--2--2--2--2|
D|3--3--3--3--7--7--7--7--3--3--3--3--2--2--2--2|

E|----------------------------------------------|
B|----------------------------------------------|
G|----------------------------------------------|
D|3--3--3--3--7--7--7--7--3--3--3--3--2--2--2--2|
A|3--3--3--3--7--7--7--7--3--3--3--3--2--2--2--2|
D|3--3--3--3--7--7--7--7--3--3--3--3--2--2--2--2|

The volume of the guitar decreases here
E|--------------------------------------------------------------|
B|--------------------------------------------------------------|
G|--------------------------------------------------------------|
D|3---3--3-3-3-3-3-3--7---7--7-7-7-7-7-7--3---3--3-3-3-3-3-3---2|
A|3---3--3-3-3-3-3-3--7---7--7-7-7-7-7-7--3---3--3-3-3-3-3-3---2|
D|3---3--3-3-3-3-3-3--7---7--7-7-7-7-7-7--3---3--3-3-3-3-3-3---2|

There We Go!!! I hope you enjoyed playing this tab!!!!
Please Rate this tab and comment on it. if you have any queries or fix ups please
e-mail em to nagle5000@yahoo.com and if it sounds good i'll correct it and give you credit
for it

Please support SEETHER!!! they are a great SOUTH AFRICAN band and deserve our support.
Please visit their website
www.seether.com and check em out

Lyrics

Do you think i'm faking, when im lying next to you
Do you think that i am blind, nothing left for me to lose
Must be something on your mind, something lost and left behind
Do you know i'm faking 

Do you know i'm faking, when im lying next to you
Do you know that i am blind, to everything you ever do
Must be something on your mind, something lost, for me to find
Do you know i'm faking

Then she told me she had a gun, it sounded like she'd used it
Once before on him
Then she told me she had a gun, it sounded like she'd used it
Once before on him

I guess you know i'm faking, when i tell you i love you
I guess you know that i am blind, to everything you say and do
Must be something on my mind, there's nothing left for me to hide
Do you know i'm faking

Then she told me she had a gun, it sounded like she'd used it
Once before on him
Then she told me she had a gun, it sounded like she'd used it
Once before on him

We have to succumb to the feelings we can never face
I need you, i breathe you, i can't go through this all again
We have to succumb to the feelings we can never face
I need you, i breathe you, i can't go through this 

Then she told me she had a gun, it sounded like she'd used it 
Once before
Then she told me she had a gun, it sounded like she'd used it 
Once before on him
Then she told me she had a gun, it sounded like she'd used it 
Once before on him
Then she told me she had a gun, She said she wants to used it
On me now

---------------------------
 This file passed through:
       Absolute Tabs
   http://www.tabs.co.za
---------------------------
Comments