Seether - Driven Under Chords & Tabs

 

Driven Under Chords & Tabs

Seether Chords & Tabs

Version: 2 Type: Tab 0 ratings
1 star 2 stars 3 stars 4 stars 5 stars
comments

Driven Under Tab

   
|----Artist-:-Seether-----|
|---Song-:-Driven-Under---|
|---Album-:-Disclaimer----|
|-------Track-:-05--------|
|--Released-:-20-Aug-2002-|
|-Done-By-:-Paul-Cassells-|

Ok, this is the first tab i've ever distributed so if it sounds wrong... Sorry!

Tuning: 	D	(Dropped D)
	  	A
		D
		G
		B
		E

Inro + Verse
|---------------------------------------------------------------|
|-----5------5--------5------5-------5------5------2----2-----5-|
|---2---2--2---2----2---2--2---2---2---2--2---2---5----5--------|
|-3---------------3---------------------------------------------|
|--------------------------------0------------------------------|
|---------------------------------------------------------------|

Well...Something like that!
[ Tab from: http://www.guitartabs.cc/tabs/s/seether/driven_under_tab_ver_2.html ]
Chorus
|------------------------------------------|
|------------------------------------------|
|------------------------------------------|
|-3-3-3-3----7-7-7-7----3-3-3-3----2-2-2-2-|
|-3-3-3-3----7-7-7-7----3-3-3-3----2-2-2-2-|
|-3-3-3-3----7-7-7-7----3-3-3-3----2-2-2-2-|

Bridge ("We have to, succumb to...") or whatever he says
|------------------------------------------------------|
|------------------------------------------------------|
|--7-7-7-7-7----5-5-5-5-5-5----5-5-5-5-5-5----4-4-4-4--|
|--7-7-7-7-7----5-5-5-5-5-3----5-5-5-5-5-5----4-4-4-4--|
|--5-5-5-5-5----3-3-3-3-3-3----3-3-3-3-3-3----2-2-2-2--|
|------------------------------------------------------|

Well, thats about all for this song, i'm still working on the others
but i'll have them ready soon.

Any problems or queries or any of that shit...
E-mail me at paulc4me@hotmail.com
Thanks
-Fieta-
Comments