Seether - Driven Under Chords & Tabs

 

Driven Under Chords & Tabs

Seether Chords & Tabs

Version: 1 Type: Tab 0 ratings
1 star 2 stars 3 stars 4 stars 5 stars
comments

Driven Under Tab

   
seether - driven under


tabbed by d wash.
dropped d tuning
d a d g b e

intro (twice)
e|---------------------------------------------------------------|
b|---------------------------------------------------------------|
g|----9----9----9----9----9-------9----9----9-7--9-7---9-7--9----|
d|--7----7----7----7----7-------7----7----7----------------------|
a|8----8----8----8----8-----0-7----7----7------7-----7-----------|
d|---------------------------------------------------------------|

verse 1 & 2(repeat as necessary)
e|---------------------------------------------------------------|
b|---------------------------------------------------------------|
g|----9----9----9----9----9-------9----9----9------9-----9---9---|
d|--7----7----7----7----7-------7----7----7------7-----7---------|
a|8----8----8----8----8-----0-7----7----7------7-----7-----7---7-|
d|---------------------------------------------------------------|

       |Chorus
e------|---------------------------------------------00-----|
b------|---------------------------------------------00-----|
g------|----------------------------------------------------|
d--xxxx|3-~-33333333/7-~-777777773-~-333333332-~-2222-----|
a--xxxx|3-~-33333333/7-~-777777773-~-333333332-~-2222-----|
d--xxxx|3-~-33333333/7-~-777777773-~-333333332-~-2222-----|
             ~slight bend with count time maybe

verse 3 Intro (twice)                                  |1st time  |2nd time  
e|-----------------------------------------------------|----------|----------|
b|-----------------------------------------------------|----------|----------|
g|----9----9----9----9----9-------9----9----9-7--9-7---|9-7--9----|9--------|
d|--7----7----7----7----7-------7----7----7------------|----------|----------|
a|8----8----8----8----8-----0-7----7----7------7-----7-|----------|----------|
d|-----------------------------------------------------|----------|----------|
[ Tab from: http://www.guitartabs.cc/tabs/s/seether/driven_under_tab.html ]
verse 3(repeat as necessary)
e|---------------------------------------------------------------|
b|---------------------------------------------------------------|
g|----9----9----9----9----9-------9----9----9------9-----9---9---|
d|--7----7----7----7----7-------7----7----7------7-----7---------|
a|8----8----8----8----8-----0-7----7----7------7-----7-----7---7-|
d|---------------------------------------------------------------|
  very faintly with first half of verse - then normal

       |Chorus (twice)
e------|------------------------------------------------0---|
b------|-----------------------------------------------0----|
g------|----------------------------------------------------|
d--xxxx|3-~-33333333/7-~-777777773-~-333333332-~-2222-----|
a--xxxx|3-~-33333333/7-~-777777773-~-333333332-~-2222-----|
d--xxxx|3-~-33333333/7-~-777777773-~-333333332-~-2222-----|
             ~slight bend with count time maybe


break down (4 times)
e|-------------------------------------------------------------------------------------|
b|-------------------------------------------------------------------------------------|
g|-------------------------------------------------------------------------------------|
d|12-12-12-12-12---------3-3-3-3-3----------10-10-10-10-10----------5-5-5-53-0-----|
a|12-12-12-12-12---------3-3-3-3-3----------10-10-10-10-10----------5-5-5-53-0-----|
d|12-12-12-12-12---------3-3-3-3-3----------10-10-10-10-10----------5-5-5-53-0-----|

end break down
d|--------------------------------------------------------------xx-x-|
a|--------------------------------------------------------------xx-x-|
d|3--------------3/7-------------73----------------------------xx-x-|

Chorus (twice)
e|------------------------------------------------0---|
b|-----------------------------------------------0----|
g|----------------------------------------------------|
d|3-~-33333333/7-~-777777773-~-333333332-~-2222-----|
a|3-~-33333333/7-~-777777773-~-333333332-~-2222-----|
d|3-~-33333333/7-~-777777773-~-333333332-~-2222-----|

e|----------------------------------------------------|
b|----------------------------------------------------|
g|----------------------------------------------------|
d|3-3-33333333/7-7-777777773-3-33333333-2-~-~-~------|
a|3-3-33333333/7-7-777777773-3-33333333-2-~-~-~------|
d|3-3-33333333/7-7-777777773-3-33333333-2-~-~-~------|

my favorite band next to aic            
Comments