Seether - Driven Under Correct Chords & Tabs

 

Driven Under Correct Chords & Tabs

Seether Chords & Tabs

Version: 1 Type: Tab 1 rating
1 star 2 stars 3 stars 4 stars 5 stars
comments

Driven Under Correct Tab

SEETHER
DRIVEN UNDER
TABBED BY DAVID ROTHE
standard tuning 



(REPEAT AS NECESSARY FOR INTRO AND VERSE)

with chorus effect

[ Tab from: http://www.guitartabs.cc/tabs/s/seether/driven_under_correct_tab.html ]
 
E-----------------------------------------------------------------------
B-----------------------------------------------------------------------
G-----------------------------------------------------------------------
D-----14----14----14----14----14------14----14----14-12--14-12--14-12---
A---12----12----12----12----12--0---12----12----12-----12-----12--------
E-13----13----13----13----13------12----12----12------------------------
  2 1 3 2 1 3 2 1 3 2 1 3 2 1 3 0 1 1 3 1 1 3 1 1 3  1 1 3  1 1 3  1-fingering

(CHORDS FOR CHORUS LISTEN FOR STRUMMING PATTERN)

WITH DISTORTION

E-----------------------
B-----------------------
G-----------------------
D--3--7--3--------------
A--3--7--3--------------
E--1--5--1--------------

(CHORDS FOR BRIDGE LISTEN FOR STRUMMING PATTERN)

WITH DISTORTION

E-----------------------
B-----------------------
G--7-----5--------------
D--7--3--5--5--3--------
A--5--3--3--5--3--------
E-----1-----3--1--------


there it is 100% correct
Comments