Seether - Driven Under Chords & Tabs

 

Driven Under Chords & Tabs

Seether Chords & Tabs

Version: 1 Type: Bass Tab 0 ratings
1 star 2 stars 3 stars 4 stars 5 stars
comments

Driven Under Bass Tab

|--------Seether--------|
|------Driven-Under-----|
|-------Disclaimer------|
|----Wind-Up-Records----|
|----------2002---------|

VERSE

G------------------------------------------2-2-5--4-2-5\----
D--3-3-3-3-3-3--3-3--3-3--3-3\7-7-7-7-7-7-------------------
A-----------------------------------------------------------
E-----------------------------------------------------------

CHORUS
[ Tab from: http://www.guitartabs.cc/tabs/s/seether/driven_under_btab.html ]
G------------------------------------------------------------------------------
D------------------------------------------------------------------------------
A------------------------------------------------------------------------------
E--0-0--0-1---1--1--1--1-1\5---5--5--5-5--5-5/1---1--1--1-1--1-1-0---0--0--0-0-

VERSE

CHORUS

BRIDGE

G---------------------------------------------------------
D---------------------------------------------------------
A--5-5-5-5-5---------------0-3-3-3-3-3--3-----------------
E-------------0-1-1-1-1-1-----------------3-3-3-3-3/1-----

SLOWED QUIET CHORUS (SINGLS STRUM POWER CHORDS ON GUITAR)

G-----------------------------------------
D-----------------------------------------
A----3------------7-----------3-----------
E--1------------5-----------1----------0--

CHORUS
Comments