Seether - Desire For Need Chords & Tabs

 

Seether Chords & Tabs

Version: 1 Type: Tab 0 ratings
1 star 2 stars 3 stars 4 stars 5 stars
comments

Desire For Need Tab

D|-------------|
A|-------------|
F|-------------|
C|-------------|
G|--0-0---0-0--|
C|--0-0---0-0--|
    * *   * *

D|---------------------------------------------|
A|-------------------(4x)-----------------(4x)-|
F|---------------------5-----------------5-8---|
C|-3h5p3-0-0-0-0--3--0-5--3h5p3-0-0-0-0--5-8---|
G|-3h5p3-0-0-0-0--3--0-3--3h5p3-0-0-0-0--3-6---| rpt
C|-3h5p3-0-0-0-0--3--0----3h5p3-0-0-0-0--------|
           * *                    * *

D|--------------------------|
A|--------------------------|
F|--------------------------|
C|--------------------------|
G|-0-0---0-0----------------| 2x
C|-0-0---0-0----0-13-12-10v-|
   * *   * *

(figure strumming)
D|---------------------------------------------|
A|---------------------------------------------|
F|-----10----------10-----------13-----------9-|
C|-8-x-10-8--6-8-x-10-8--6-11-x-13-11--8-11--9-|
G|-8-x--8-8--6-8-x--8-8--6-11-x-11-11--8-11--7-|
C|-8-x--8-8--6-8-x--8-8--6-11-x-11-11--8-11--7-|

Bridge
D|---------------------------------------------------------------|
A|---------------------------------------------------------------|
F|---------------------------------------------------------------|
C|---------------------------------------------------------------|
G|---------5\------------------------------5\----------------(3)-|
C|-0-0-0-0-5\-0-0-0-6-5-0-3-5-3-0--0-0-0-0-5\-0-0-0-6-5-0-3-5----|
[ Tab from: http://www.guitartabs.cc/tabs/s/seether/desire_for_need_tab.html ]
D|------------------------------------------------|
A|------------------------------------------------|
F|------------------------------------------------|
C|------------------------------------------------|
G|---------5\------------------------------5\-----|
C|-0-0-0-0-5\-0-0-0-6-5-0-3-5-3-0--0-0-0-0-5\-0-0-|

D|------------------------------------------------------|
A|-------------------(5x)--------------------(5x)-------|
F|-7-------10---------5------------------------5--------|
C|-7--6--7-10-10--11--5--0-0-0--6-5-0-3-5-3-0--5--0-0-0-|
G|-5--6--7--8-10--11--3--0-0-0--6-5-0-3-5-3-0--3--0-0-0-| 2x
C|----6--7----10--11-----0-0-0--6-5-0-3-5-3-0-----0-0-0-|
                         * * *                    * * *
                      

D|----------------------------------------|
A|----------------------------------------|
F|-7-------10----------7------------------|
C|-7--6--7-10-10--11---7--5--6--7--12--10-|
G|-5--6--7--8-10--11---5--5--6--7--12--10-|
C|----6--7----10--11------5--6--7--12--10-|


Outro
D|--------(4X)-------| 
A|-------------------|
F|-7-------10--------|
C|-7--6--7-10-10--11-|
G|-5--6--7--8-10--11-|
C|----6--7----10--11-| 

D|----------------(2X)-----------------| |-end-|
A|-------------------------------------| |-----|
F|-7--5---------------7--5-----------6-| |-----|
C|-7--5--6--5--3--0---7--5--6--5--3--6-| |--0--|
G|-5--3--6--5--3--0---5--3--6--5--3--4-| |--0--|
C|-------6--5--3--0---------6--5--3----| |--0--|

Comments