Seether - Broken With Amy Lee Chords & Tabs

 

Broken With Amy Lee Chords & Tabs

Seether Chords & Tabs

Version: 1 Type: Tab 2 ratings
1 star 2 stars 3 stars 4 stars 5 stars
comments

Broken With Amy Lee Tab

#----------------------------------PLEASE NOTE--------------------------------#
#This file is the author's own work and represents their interpretation of the#
#song. You may only use this file for private study, scholarship, or research.#
#-----------------------------------------------------------------------------#
#-- File created with Instab - http://www.pconline.com/~smcarey/instab.html --#
#-----------------------------------------------------------------------------#

Author/Artist: Seether w/Amy Lee
Title: Broken
Album: Punisher Soundtrack
Transcribed by: FacSun
Email: facsun@yahoo.com

Please note, this is NOT exact!! The Intro pattern is very close, 
but not perfect... primarily the D-chord pattern in the fourth bar
is not exact with the recording. This tab represents how I play
it. If you have an exact version, please send me one! =]
I have seen a couple other versions with the same chords
posted (mainly Em and C) but different tunings (ie: standard
and capo 1st)... I have found it sounds best tuned one half
step down but with the same postions. Enjoy my first
submission! Thanks!

Of course all feedback, ranting, raving, hooting, hollering,
moaning, groaning... compliments, praise, offerings, and 
any other charitable contributions are welcome!!



Intro and Verse One (His vocals):

-||---------------------3-------|---------------------3-------|---------------
-||-7h8------8--3---------3-----|-7h8------8--3---------3-----|---------------
-||--------0----0-----0-----0---|--------0----0-----0-----0---|---------------
-||-----------------------------|-----------------------------|---------------
-||-7----7------3---3---------3-|-7----7------3---3---------3-|---------------
-||-----------------------------|-----------------------------|---------------
                                                                              
[ Tab from: http://www.guitartabs.cc/tabs/s/seether/broken_with_amy_lee_tab.html ]
--|---------------------3-------|-2-------2-------2-------2-------3-2-||------
--|-7h8------8--3---------3-----|-----3-------3-------3-------3---3-3-||------
--|--------0----0-----0-----0---|---2-------2-------2-------2---------||------
--|-----------------------------|-0-------0-------0-------0-----------||------
--|-7----7------3---3---------3-|-------------------------------------||------
--|-----------------------------|-------------------------------------||------
    Chorus (Timing is easy, chords are):                                      

-||---3---||---0---||---------------------------------------------------------
-||---3---||---0---||---------------------------------------------------------
-||---0---||---0---||---------------------------------------------------------
-||---2---||---2---||---------------------------------------------------------
-||---3---||---2---||---------------------------------------------------------
-||---x---||---0---||---------------------------------------------------------
 Verse Two (Her vocals): These chords are strummed in rhythym a la Verse One  

-||-7-----7-7---3---3---3-3-3-|-7-----7-7---3---3---3-3-3-|-------------------
-||-7h8---8-8---3---3---3-3-3-|-7h8---8-8---3---3---3-3-3-|-------------------
-||-9-----9-9---5---5---5-5-5-|-9-----9-9---5---5---5-5-5-|-------------------
-||-9-----9-9---5---5---5-5-5-|-9-----9-9---5---5---5-5-5-|-------------------
-||-7-----7-7---3---3---3-3-3-|-7-----7-7---3---3---3-3-3-|-------------------
-||-x-----x-x---x---x---x-x-x-|-x-----x-x---x---x---x-x-x-|-------------------
                                                                              

-||-7-----7-7---3---3---3-3-3-|-5---5---5---5---5-5-||------------------------
-||-7h8---8-8---3---3---3-3-3-|-5---5---5---5---5-5-||------------------------
-||-9-----9-9---5---5---5-5-5-|-7---7---7---7---7-5-||------------------------
-||-9-----9-9---5---5---5-5-5-|-7---7---7---7---7-5-||------------------------
-||-7-----7-7---3---3---3-3-3-|-5---5---5---5---5-5-||------------------------
-||-x-----x-x---x---x---x-x-x-|-x---x---x---x---x-x-||------------------------
                                                                              

Comments