Seether - Because Of Me Chords & Tabs

 

Because Of Me Chords & Tabs

Seether Chords & Tabs

Version: 2 Type: Tab 0 ratings
1 star 2 stars 3 stars 4 stars 5 stars
comments

Because Of Me Tab

Seether - Because of Me
Guitar 1 - Shaun Morgan
Guitar 2 - Pat Callahan

Pretty easy song in general except for the crazy solo(which is the only reason why I'm 
this as "intermediate."  Also, my tab was based on the general idea of Version 1, but it 
missing a few parts/riffs.

<> - harmonics

INTRO
Part 1
Guitar 1
Eb|-----------------------------------------------|
Bb|-----------------------------------------------|
Gb|-----------------------------------------------|
Db|-----------------------------------------------|
Ab|---------3---------3-----3---------3-------2-3-|
Db|-0h2-0h2---0h2-0h2---0h2---0h2-0h2---0h2-2-2-3-|

Eb|-----------------------------------------------|
Bb|-----------------------------------------------|
Gb|-----------------------------------------------|
Db|-----------------------------------------------|
Ab|---------3---------3-----3---------3-----xx----|
Db|-0h2-0h2---0h2-0h2---0h2---0h2-0h2---0h2-xx----|

INTRO - Part 2
Both Guitars    2x
Eb|-----------------------------------------------|
Bb|-----------------------------------------------|
Gb|-----------------------------------------------|
Db|-----------------------------------------------|
Ab|---------3---------3-----3---------3-------2-3-|
Db|-0h2-0h2---0h2-0h2---0h2---0h2-0h2---0h2-2-2-3-|

INTRO
Part 3
Guitar 1
Eb|-------------------------------------------------------|
Bb|-------------------------------------------------------|
Gb|-------------------------------------------------------|
Db|-------------------------------------------------------|
Ab|---------------------------------------------------2-3-|
Db|-0h2-0h2-----0h2-0h2-----0h2-----0h2-0h2-----0h2-2-2-3-|

Guitar 2
Eb|-------------------------------------------------------|
Bb|-------------------------------------------------------|
Gb|---------<5>---------<5>-----------------<5>-----------|
Db|-----------------------------<5>-----------------------|
Ab|---------------------------------------------------2-3-|
Db|-------------------------------------------------2-2-3-|

VERSE
Guitar 2
Eb|---0-------------0--------|
Bb|----0-------------0-------|
Gb|--------------------------|
Db|--------------------------|
Ab|2--------xx--3-2------3---|
Db|2--------xx--3-2------3---|

VERSE
Part 2       2x
Guitar 1
Eb|----------------------------|
Bb|----------------------------|
Gb|----------------------------|
Db|-2222---222--2222---222-3---|
Ab|-2222---222--2222---222-3---|
Db|-2222---222--2222---222-3---|

Guitar 2
Eb|----------------------------|
Bb|----------------------------|
Gb|-9999---999--9999---999-10--|
Db|-xxxx---xxx--xxxx---xxx-x---|
Ab|-7777---777--7777---777-8---|
Db|----------------------------|

VERSE
Part 3
Both Guitars
Let the open notes ring.  Sounds like there might be a very very slight palm mute on the 
chords.

Eb|---0-----0----------0-----0----|
Bb|----0-----0----------0-----0---|
Gb|-------------------------------|
Db|-------------------------------|
Ab|2------2----xx--3-2-----2----3-|
Db|2------2----xx--3-2-----2----3-|

CHORUS
Part 1
Both Guitars   2x
Eb|-----------------------------|
Bb|-----------------------------|
Gb|-----------------------------|
Db|2-0-2-0-2-0-------5-5-5750---|
Ab|2-0-2-0-2-0-10-10-5-5-5750---|
Db|2-0-2-0-2-0-10-10-5-5-5750---|

CHORUS
Part 2
Guitar 1
Eb|-------------------------------------------------------|
Bb|-------------------------------------------------------|
Gb|-------------------------------------------------------|
Db|2-0-2-0-2-0-------5-5-5750--2-0-2-0-2------------------|
Ab|2-0-2-0-2-0-10-10-5-5-5750--2-0-2-0-2-101010s12--------|
Db|2-0-2-0-2-0-10-10-5-5-5750--2-0-2-0-2-101010s12-12s<<<-|

Guitar 2
Eb|--------------------------------------------------------|
Bb|--------------------------------------------------------|
Gb|9-7-9-7-9-7-12-12-7-7-797--9-7-9-7-9-7-121212-14--------|
Db|x-x-x-x-x-x-x--x--x-x-xxx--------------x-x-x--x---------|
Ab|7-5-7-5-7-5-10-10-5-5-575--7-5-7-5-7-5-101010s12--------|
Db|-------------------------------------------------12s<<<-|
[ Tab from: http://www.guitartabs.cc/tabs/s/seether/because_of_me_tab_ver_2.html ]
Post CHORUS
Part 1
Both Guitars
Eb|-----------------------------------------------|
Bb|-----------------------------------------------| x2
Gb|-----------------------------------------------|
Db|-------------------------------------------2-3-|
Ab|---------3---------3-----3---------3-------2-3-|
Db|-0h2-0h2---0h2-0h2---0h2---0h2-0h2---0h2-2-2-3-|

Post CHORUS
Part 2
Guitar 1
Eb|-------------------------------------------------------|
Bb|-------------------------------------------------------|
Gb|-------------------------------------------------------|
Db|-------------------------------------------------------|
Ab|---------------------------------------------------2-3-|
Db|-0h2-0h2-----0h2-0h2-----0h2-----0h2-0h2-----0h2-2-2-3-|

Guitar 2
Eb|-------------------------------------------------------|
Bb|-------------------------------------------------------|
Gb|---------<5>---------<5>-----------------<5>-----------|
Db|-----------------------------<5>-----------------------|
Ab|---------------------------------------------------2-3-|
Db|-------------------------------------------------2-2-3-|

VERSE
Parts 1, 2, 3
CHORUS
Parts 1 2

BRIDGE/SOLO
Guitar 1        6x  (1st 2 times alone)
Eb|----------------------------------------|
Bb|----------------------------------------|
Gb|------4-------4----------4------4-------|
Db|------4-------4----------4------4-------|
Ab|------3-------3-x44------3------3-x33---|
Db|5p4p0---5p4p0---x44-5p4p0--5p4p0--x33---|

Guitar 2     2x
OK, this is a GENERAL IDEA of what I think it is, its NOT perfect.
Please, send me a personal message if you have any tips on this.

Eb|10h12p10h12p10h12p10h12p10h1210h12-12~-10h12p10h12p10h12p10h12p10h12p10|
Bb|-----------------------------------------------------------------------|
Gb|-----------------------------------------------------------------------|
Db|-----------------------------------------------------------------------|
Ab|-----------------------------------------------------------------------|
Db|-----------------------------------------------------------------------|

Guitar 2 cont.              Played only the 2nd time around - vvvvvvv
Eb|----------------------------------------12h14p12h14p12h14----------|
Bb|-6h8p6h8p6h8p6h8p6h8p6h8-9-6h8p6h8p6h8-----------------------------|
Gb|----------------------------------------------------------<5>---<4>|
Db|-------------------------------------------------------------<5>---|
Ab|-------------------------------------------------------------------|
Db|-------------------------------------------------------------------|

CHORUS
Both Guitars   3x
Eb|-----------------------------|
Bb|-----------------------------|
Gb|-----------------------------|
Db|2-0-2-0-2-0-------5-5-5750---|
Ab|2-0-2-0-2-0-10-10-5-5-5750---|
Db|2-0-2-0-2-0-10-10-5-5-5750---|

Both Guitars   1x
Eb|---------------------------------|
Bb|---------------------------------|
Gb|---------------------------------|
Db|2-0-2-0-2-0----------------------|
Ab|2-0-2-0-2-0-10-10-10s5-5-5-5750--|
Db|2-0-2-0-2-0-10-10-10s5-5-5-5750--|

Guitar 1     2x
                   This played only the 1st time --- vvv
Eb|------------------------------------------------------|
Bb|------------------------------------------------------|
Gb|------------------------------------------------------|
Db|2-0-2-0-2-0-------5-5-5750--2-0-2-0-2-0-----------xxx-|
Ab|2-0-2-0-2-0-10-10-5-5-5750--2-0-2-0-2-0-101010s12-xxx-|
Db|2-0-2-0-2-0-10-10-5-5-5750--2-0-2-0-2-0-101010s12-xxx-|

Guitar 2     2x
                   This played only the 1st time --- vvv
Eb|------------------------------------------------------|
Bb|------------------------------------------------------|
Gb|9-7-9-7-9-7-12-12-7-7-797---9-7-9-7-9-7-121212-14-----|
Db|x-x-x-x-x-x-x--x--x-x-xxx---x-x-x-x-x-x-x-x-x--x--xxx-|
Ab|7-5-7-5-7-5-10-10-5-5-575---7-5-7-5-7-5-101010s12-xxx-|
Db|--------------------------------------------------xxx-|

OUTRO
Both Guitars
Eb|---------------------------------------------|
Bb|---------------------------------------------|
Gb|-----------4-------4----------4------4-------|
Db|-----------4-------4----------4------4-------|
Ab|-----------3-------3-x44------3------3-x33---|
Db|12<<-5p4p0---5p4p0---x44-5p4p0--5p4p0--x33---|

Thats it.  Please rate for me!!
Comments