Seether - Because Of Me Chords & Tabs

 

Because Of Me Chords & Tabs

Seether Chords & Tabs

Version: 1 Type: Bass Tab

Because Of Me Bass Tab

Drop D, half step down tuning

Right after intro
---------|
---------|
---------|
--0-3-3--|


post intro
----------------------------------------------|
----------------------------------------------|
---------3---------3-----3---------3----------|
-0h2-0h2---0h2-0h2---0h2---0h2-0h2--0h2-0-2-3-|

verse
--------------------|
--------------------|
-----------------3--|
-0-----0-----0h2--0-|

"My philosophy..."
---------------------------------|
---------------------------------|
------------------------------3--|
-2-2-2--2-2-2----2-2-2--2-2-2----|

[ Tab from: http://www.guitartabs.cc/tabs/s/seether/because_of_me_btab.html ]
Chorus
--------------------------------------|
--------------------------------------|
--------------------------------------|
-2-0-2-0-2-0--10-10--5-5-7-0----------|

Post Chorus
----------------------------------------------|
----------------------------------------------|
----------------------------------------------|
-0h2-0h2---0h2-0h2---0h2---0h2-0h2--0h2-0-2-3-|



Solo
----------------------------------------------|
----------------------------------------------|
---------3---------3-----3---------3----------|
-0h2-0h2---0h2-0h2---0h2---0h2-0h2--0h2-0-2-3-|

Easy song, but a great one... Enjoy!