Seether - 69 Tea Chords & Tabs

 

69 Tea Chords & Tabs

Seether Chords & Tabs

Version: 2 Type: Tab 1 rating
1 star 2 stars 3 stars 4 stars 5 stars
comments

69 Tea Tab

Song:    69 Tea
Artist:  Seether
Album:   Disclaimer

Transcribed by:  Evan Hoffman
Email: JustGotWicked49@hotmail.com

This is an awesome song and it's pretty easy to play.  I didn't include
timing or count so just listen to the song to get those.  Good luck!

Intro/Verse:
e|-------------------------------------------------------| 
B|-------------------------------------------------------| 
G|---------7--7-7------------7-7h8p7---------------------| 
D|--5-5-x--7--7-7--7-7-x-8-------------------------------| 
A|--5-5-x--5--5-5--7-7-x-8-------------------------------| 
D|--5-5-x----------7-7-x-8-------------------------------| 

Chorus:
 |--------------------------------------------------------------| 
 |--------------------------------------------------------------| 
 |--9-9-9-9-----------------------------------------------------| 
 |--9-9-9-9--9--9-9-9--7-7-7-7--10--10-10-10--------------------| 
 |--7-7-7-7--9--9-9-9--7-7-7-7--10--10-10-10--------------------| 
 |-----------9--9-9-9--7-7-7-7--10--10-10-10--------------------| 


 |--------------------------------------------------------------| 
 |--------------------------------------------------------------| 
 |--9-9-9-9-----------------------------------------------------| 
 |--9-9-9-9--9--9-9-9--7-7-7-7--10--10-10-10--------------------| 
 |--7-7-7-7--9--9-9-9--7-7-7-7--10--10-10-10--------------------| 
 |-----------9--9-9-9--7-7-7-7--10--10-10-10--------------------| 
				  PM========

Verse:
 |-------------------------------------------------------| 
 |-------------------------------------------------------| 
 |---------7--7-7------------7-7h8p7---------------------| 
 |--5-5-x--7--7-7--7-7-x-8-------------------------------| 
 |--5-5-x--5--5-5--7-7-x-8-------------------------------| 
 |--5-5-x----------7-7-x-8-------------------------------| 

Verse End:
 |----------------------------------| 
 |----------------------------------|  
 |---------7--7-7-------------------|  
 |--5-5-x--7--7-7----7-7-7-8-8-8-8--|  
 |--5-5-x--5--5-5----7-7-7-8-8-8-8--|  
 |--5-5-x------------7-7-7-8-8-8-8--|  

Chorus:
 |--------------------------------------------------------------| 
 |--------------------------------------------------------------| 
 |--9-9-9-9-----------------------------------------------------| 
 |--9-9-9-9--9--9-9-9--7-7-7-7--10--10-10-10--------------------| 
 |--7-7-7-7--9--9-9-9--7-7-7-7--10--10-10-10--------------------| 
 |-----------9--9-9-9--7-7-7-7--10--10-10-10--------------------| 

[ Tab from: http://www.guitartabs.cc/tabs/s/seether/69_tea_tab_ver_2.html ]
 |--------------------------------------------------------------| 
 |--------------------------------------------------------------| 
 |--9-9-9-9-----------------------------------------------------| 
 |--9-9-9-9--9--9-9-9--7-7-7-7--10--10-10-10--------------------| 
 |--7-7-7-7--9--9-9-9--7-7-7-7--10--10-10-10--------------------| 
 |-----------9--9-9-9--7-7-7-7--10--10-10-10--------------------| 
				  PM========

Bridge:
 |--------------------------------------------------------------| 
 |--------------------------------------------------------------| 
 |--5-5-5------------4-4-4--------------------------------------| 
 |--5-5-5--6--6-6-6--4-4-4--3--3-3-3----------------------------| 
 |--3-3-3--6--6-6-6--2-2-2--3--3-3-3----------------------------| 
 |---------6--6-6-6---------3--3-3-3----------------------------| 

Solo:
 |--------------------------------------------------------------| 
 |--15----15-----15-----17----18----17--------------------------| 
 |-----14----14-----14-----14----14----14-----------------------| 
 |--------------------------------------------------------------| 
 |--------------------------------------------------------------| 
 |--------------------------------------------------------------|  

 |--------------------------------------------------------------| 
 |--------------------------------------------------------------| 
 |---9~~~~~~~~~~~~~~~~~~~~~~~~~~~~~~~---------------------------| 
 |--------------------------------------------------------------| 
 |--------------------------------------------------------------| 
 |--------------------------------------------------------------|  

Chorus:
 |--------------------------------------------------------------| 
 |--------------------------------------------------------------| 
 |--9-9-9-9-----------------------------------------------------| 
 |--9-9-9-9--9--9-9-9--7-7-7-7--10--10-10-10--------------------| 
 |--7-7-7-7--9--9-9-9--7-7-7-7--10--10-10-10--------------------| 
 |-----------9--9-9-9--7-7-7-7--10--10-10-10--------------------| 


 |--------------------------------------------------------------| 
 |--------------------------------------------------------------| 
 |--9-9-9-9-----------------------------------------------------| 
 |--9-9-9-9--9--9-9-9--7-7-7-7--10--10-10-10--------------------| 
 |--7-7-7-7--9--9-9-9--7-7-7-7--10--10-10-10--------------------| 
 |-----------9--9-9-9--7-7-7-7--10--10-10-10--------------------| 
				  PM========

Outro:
 |--------------------------------------------------------------| 
 |--------------------------------------------------------------| 
 |--5-5-5------------4-4-4--------------------------------------| 
 |--5-5-5--6--6-6-6--4-4-4--3--3-3-3----------------------------| 
 |--3-3-3--6--6-6-6--2-2-2--3--3-3-3----------------------------| 
 |---------6--6-6-6---------3--3-3-3----------------------------|
Comments