Seether - 69 Tea Acoustic Chords & Tabs

 

69 Tea Acoustic Chords & Tabs

Seether Chords & Tabs

Version: 1 Type: Tab 0 ratings
1 star 2 stars 3 stars 4 stars 5 stars
comments

69 Tea Acoustic Tab

   
Seether - 69 tea
Tabbed By: bassbloodbath
Email: bassbloodbath@yahoo.com

Tuning: Standard (E A D G B E)

This is the acoustic version Fairly accurate easier than it looks just compare it to
the song or go to the seether web site and check out the Under Ground Online live
acoustic video to compare

Verse:
G(5)   D(5)    A(5)  A#(5)
Lonely in this white room
G(5)   D(5)    A(5)  A#(5)
there are pads everywhere
G(5)   D(5)    A(5)  A#(5)
chafing straighjacket
G(5)   D(5)    A(5)  A#(5)
i wont die in here
G(5)   D(5)    A(5)  A#(5)
save me smiling jesus
G(5)   D(5)    A(5)  A#(5)
get off that cross
G(5)   D(5)    A(5)  A#(5)
hate me screaming masses
G(5)   D(5)    A(5)  A#(5)
i dont care if im lost

Play the chords above with the words with this pattern
      G(5)   D(5)  A(5) A#(5)
     v ^v  v  vv  v ^v  v vv
E|----------------------------------------------------------------||
B|----------------------------------------------------------------||
G|---------7--77--------8-88--------------------------------------||
D|---5-55--7--77--7-77--8-88--------------------------------------||
A|---5-55--5--55--7-77--6-66--------------------------------------||
E|---3-33---------5-55--------------------------------------------||


Chorus:
E(5)     B(5)       A(5)      F#(5)
dont tell me that youre all better
E(5)     B(5)       A(5)      F#(5)
i dont care if you are
E(5)     B(5)       A(5)      F#(5)
dont tell me that youre trendsetters
E(5)     B(5)       A(5)      F#(5)
i dont care it you are
[ Tab from: http://www.guitartabs.cc/tabs/s/seether/69_tea_acoustic_tab.html ]
Play the chords above like this with the words
    E(5)B(5) A(5)  F#(5)
   v ^vv  v  v ^v  v  vv
E|--------------------------------||
B|--------------------------------||
G|-9-99---------------------------||
D|-9-999--9--7-77--4--44----------||
A|-7-779--9--7-77--4--44----------||
E|-----7--7--5-55--2--22----------||
2nd Verse:
G(5)   D(5)    A(5)  A#(5)
Lowly with my head bowed
G(5)   D(5)    A(5)  A#(5)
there are rats everywhere
G(5)   D(5)    A(5)  A#(5)
feed me bread and water
G(5)   D(5)    A(5)  A#(5)
i wont die in there
G(5)   D(5)    A(5)  A#(5)
save me smiling jesus
G(5)   D(5)    A(5)  A#(5)
get off that cross
G(5)   D(5)    A(5)  A#(5)
hate me screaming masses
G(5)   D(5)    A(5)  A#(5)
i dont care if im lost
Chorus:
E(5)     B(5)       A(5)      F#(5)
dont tell me that youre all better
E(5)     B(5)       A(5)      F#(5)
i dont care if you are
E(5)     B(5)       A(5)      F#(5)
dont tell me that youre trendsetters
E(5)     B(5)       A(5)      F#(5)
i dont care it you are
Bridge:
   G(5) G#(5) F#(5) F(5)
   v ^v v  vv v ^v v  vv
E|---------------------------------------||
B|---------------------------------------||
G|--------------------------------||Play-|| 2x
D|-5-55-6--66-4-44-3--33-----------------||Then Play this pattern with these
A|-5-55-6--66-4-44-3--33-----------------||words
E|-3-33-4--44-2-22-1--11-----------------||
G(5) G#(5) F#(5) F(5)
Say you will
G(5) G#(5) F#(5) F(5)
take my pills
G(5) G#(5) F#(5) F(5)
say you will
G(5) G#(5) F#(5) F(5)
faking ill
Solo thingy:
E----10--10--10--12--13--12--10--10--10--12--13--12---|
B------10--10--10--10--10--10--10--10--10--10--10--10-|
G-----------------------------------------------------|
D-----------------------------------------------------|
A-----------------------------------------------------|
E-----------------------------------------------------|
Chorus:
dont tell me that youre all better
E(5)     B(5)       A(5)      F#(5)
i dont care if you are
E(5)     B(5)       A(5)      F#(5)
dont tell me that youre bed wetters
E(5)     B(5)       A(5)      F#(5)
i dont care it you are
G(5) G#(5) F#(5) F(5)

Say you will
G(5) G#(5) F#(5) F(5)
take my pills
G(5) G#(5) F#(5) F(5)
say you will
G(5) G#(5) F#(5) F(5)
faking ill
Comments