Seeed - Papa Noah Chords & Tabs

 

Papa Noah Chords & Tabs

Seeed Chords & Tabs

Version: 1 Type: Bass Tab 0 ratings
1 star 2 stars 3 stars 4 stars 5 stars
comments

Papa Noah Bass Tab

Seeed - Papa Noah Bass Tabs


Verse

----------------------------------------------
----------------------------------------------
--------6-8-----6-----------------6-----6-----
-8-8---8-----8-8-8-6-8---6-6--6-8----8-8-8-6-8

Bridge
[ Tab from: http://www.guitartabs.cc/tabs/s/seeed/papa_noah_btab.html ]
------------------------------
------------------------------
-8-8-8888---------------6-----
-----------8-8-8888--8-8-8-6-8

------------------------
------------------------
-8-8-8888---------------
-----------8-8-8888--88-


Chorus

-------------------------
-------------------------
---8888-----8-10-8-10----
-6------6-8--------------


Pretty simple, just listen to the song to get the rythm.
Suggestions and Corrections mail to
christian.daneke@aon.at
Comments