See Spot Run - Weightless Chords & Tabs

 

Weightless Chords & Tabs

See Spot Run Chords & Tabs

Version: 4 Type: Tab 0 ratings
1 star 2 stars 3 stars 4 stars 5 stars
comments

Weightless Tab

   
WEIGHTLESS - See Spot Run
Album: Weightless

TUNING: Normal

Intro: [x2]

e:|--------------------------------------------------------------------
B:|--------------------------------------------------------------------
G:|--------------------------------------------------------------------
D:|------------------------7-7-7-7---------9-9-9-9---------7-7-6-7-----
A:|7-7-7-7-7-7-7-7-4-4-4-4-5-5-5-5-7-7-7-7-7-7-7-7-4-4-4-4-5-5-4-5-----
E:|5-5-5-5-4-4-4-4-2-2-2-2---------5-5-5-5---------2-2-2-2-------------

Verse 1: No Guitar

I know it's not always a party
Living with a guy like me who's always in outer space.
Maybe I don't know what's good for me
I never thought a girl like you could ever change my ways.


Bridge: [x1]

e:|--------------------------------------------------------------------
B:|--------------------------------------------------------------------
G:|--------------------------------------------------------------------
D:|------------------------7-7-7-7---------9-9-9-9---------7-7-6-7-----
A:|7-7-7-7-7-7-7-7-4-4-4-4-5-5-5-5-7-7-7-7-7-7-7-7-4-4-4-4-5-5-4-5-----
E:|5-5-5-5-4-4-4-4-2-2-2-2---------5-5-5-5---------2-2-2-2-------------

Verse 2: No Guitar

Lately I've been feeling uneasy
Thought it might have been something I said I didn't mean.
If you get to know me much better
You will see it's never my intention to be mean.
 

Chorus:

e:|---------------------------------------------------------------
B:|---------------------------------------------------------------
G:|--------------------------------------------------------------- [x2]
D:|--------9-9-9-9---------7-7-7-7-------------------------7-7-7-7
A:|7-7-7-7-7-7-7-7-4-4-4-4-5-5-5-5-7-7-7-7-7-7-7-7-4-4-4-4-5-5-5-5
E:|5-5-5-5---------2-2-2-2---------5-5-5-5-4-4-4-4-2-2-2-2--------


e:|--------------------------------------------------------------
B:|--------------------------------------------------------------
G:|--------------------------------------------------------------  [x1]
D:|---------9-9-9-9---------7-7-6-7------------------------------
A:|-7-7-7-7-7-7-7-7-4-4-4-4-5-5-4-5------------------------------
E:|-5-5-5-5---------2-2-2-2--------------------------------------


You make me weightless
When I get home I float around my whole living room.
You make it painless
Like I am on acetaminophen all the time. 


Verse 3: No Guitar

Tracy my sister thinks I'm crazy
Going for a girl who's gonna leave me in the end.
I don't know but I'm gonna chance it
You never know with this kind of thing anything could change. 


Chorus: 
[ Tab from: http://www.guitartabs.cc/tabs/s/see_spot_run/weightless_tab_ver_4.html ]
e:|---------------------------------------------------------------
B:|---------------------------------------------------------------
G:|--------------------------------------------------------------- [x2]
D:|--------9-9-9-9---------7-7-7-7-------------------------7-7-7-7
A:|7-7-7-7-7-7-7-7-4-4-4-4-5-5-5-5-7-7-7-7-7-7-7-7-4-4-4-4-5-5-5-5
E:|5-5-5-5---------2-2-2-2---------5-5-5-5-4-4-4-4-2-2-2-2--------


e:|---------------------------------------------------------------
B:|---------------------------------------------------------------
G:|--------------------------------------------------------------- [x1]
D:|--------9-9-9-9---------7-7-6-7--------------------------------
A:|7-7-7-7-7-7-7-7-4-4-4-4-5-5-4-5-4-4-4-4-4-4-4-4-7-7-7-7-7-7-7-7
E:|5-5-5-5---------2-2-2-2---------2-2-2-2-2-2-2-2-5-5-5-5-5-5-5-5


You make me weightless
When I get home I float around my whole living room.
You make it painless
Like I am on acetaminophen all the time.
All the time.


Bridge: [x2]

e:|--------------------------------------------------------------------
B:|--------------------------------------------------------------------
G:|--------------------------------------------------------------------
D:|--------9-9-x-x---------7-7-7-7-------------------------------------
A:|7-7-x-x-7-7-x-x-4-4-x-x-5-5-4-5-------------------------------------
E:|5-5-x-x---------2-2-x-x---------------------------------------------


Chorus: 

e:|---------------------------------------------------------------
B:|---------------------------------------------------------------
G:|--------------------------------------------------------------- [x2]
D:|------------------------7-7-7-7---------9-9-9-9---------7-7-6-7
A:|7-7-7-7-7-7-7-7-4-4-4-4-5-5-5-5-7-7-7-7-7-7-7-7-4-4-4-4-5-5-4-5
E:|5-5-5-5-4-4-4-4-2-2-2-2---------5-5-5-5---------2-2-2-2--------
e:|---------------------------------------------------------------
B:|---------------------------------------------------------------
G:|--------------------------------------------------------------- [x2]
D:|--------9-9-9-9---------7-7-7-7-------------------------7-7-7-7
A:|7-7-7-7-7-7-7-7-4-4-4-4-5-5-5-5-7-7-7-7-7-7-7-7-4-4-4-4-5-5-5-5
E:|5-5-5-5---------2-2-2-2---------5-5-5-5-4-4-4-4-2-2-2-2--------

You make me weightless
When I get home I float around my whole living room.
You make it painless
Like I am on acetaminophen all the time.
Yeah


Ending: 

e:|-------------------------------------------------------------------
B:|-------------------------------------------------------------------
G:|-------------------------------------------------------------------
D:|--------9-9-x-x---------7-7-6-7-------------------------7-7-6-7----
A:|7-7-x-x-7-7-x-x-4-4-x-x-5-5-4-5-7-7-x-x-7-7-x-x-4-4-x-x-5-5-4-5-7-7
E:|5-5-x-x---------2-2-x-x---------5-5-x-x-4-4-x-x-2-2-x-x---------5-5
Comments