See Spot Run - Weightless Chords & Tabs

 

Weightless Chords & Tabs

See Spot Run Chords & Tabs

Version: 3 Type: Tab 0 ratings
1 star 2 stars 3 stars 4 stars 5 stars
comments

Weightless Tab

   
SONG: Weightless
BAND: See Spot Run
ALBUM: 12 Tracks That Don't Suck
Transcribed by: Nick "Head Wannabe" Di Claudio
2 6 strings standard tuning

Chorus
"You make me weightless..."
e||--------------------------------------|>
B||--------------------------------------|>
G||-----------------------------7-7-6-7--|>
D||--7-7-7-7--6-6-6-6--4-4-4-4--7-7-6-7--|>
A||--7-7-7-7--6-6-6-6--4-4-4-4--5-5-4-5--|>
E||--5-5-5-5--4-4-4-4--2-2-2-2-----------|>

Chorus

<|--------------------------------------|| Both Gtrs
<|--------------------------------------||
<|-----------9-9-9-9-----------7-7-6-7--||
<|--7-7-7-7--9-9-9-9--4-4-4-4--7-7-6-7--||
<|--7-7-7-7--7-7-7-7--4-4-4-4--5-5-4-5--||
<|--5-5-5-5-----------2-2-2-2-----------||

Verse

No Guitar

Riff A

e||--------------------------------------|>
B||--------------------------------------|>
G||-----------------------------7-7-6-7--|>
D||--7-7-xx-x-6-6-xx-x-4-4-xx-x-7-7-6-7--|>
A||--7-7-xx-x-6-6-xx-x-4-4-xx-x-5-5-4-5--|>
E||--5-5-xx-x-4-4-xx-x-2-2-xx-x----------|>
[ Tab from: http://www.guitartabs.cc/tabs/s/see_spot_run/weightless_tab_ver_3.html ]
Riff A
<|--------------------------------------|| Gtr 1(Bald guy with
<|--------------------------------------||       the galces)
<|-----------9-9---------------7-7-6-7--||
<|--7-7-xx-x-9-9-xx-x-4-4-xx-x-7-7-6-7--||
<|--7-7-xx-x-7-7-xx-x-4-4-xx-x-5-5-4-5--||
<|--5-5-xx-x-----xx-x-2-2-xx-x----------||

e||------xx-x-----xx-x-----xx-x-x-x-x-x--|>
B||------xx-x-----xx-x-----xx-x-x-x-x-x--|>
G||------xx-x-----xx-x-----xx-x-7-7-6-7--|>
D||------77-7-----66-6-----44-4-7-7-6-7--|>
A||------77-7-----66-6-----44-4-5-5-4-5--|>
E||------55-5-----44-4-----22-2----------|>
       [pm...]   [pm...]  [pm..]
<|------xx-x-----xx-x-----xx-x-x-x-x-x--|| Gtr2  (other guy)  
<|------xx-x-----xx-x-----xx-x-x-x-x-x--||
<|------xx-x-----99-9-----xx-x-7-7-6-7--||
<|------77-7-----99-9-----44-4-7-7-6-7--||
<|------77-7-----77-7-----44-4-5-5-4-5--||
<|------55-5--------------22-2----------||
       [pm...]   [pm...]  [pm..]

Legend x = dead note (no really?)
  [pm..] = palm mute
   not a very tuff song at at all,same notes over and over
again,nothing 
tricky like pedals or harmonics or anything,just plain easy ass stuff
here 
man,any way,enjoy.

Comments