Sector Seven - You Never Know Chords & Tabs

 

You Never Know Chords & Tabs

Sector Seven Chords & Tabs

Version: 1 Type: Tab 0 ratings
1 star 2 stars 3 stars 4 stars 5 stars
comments

You Never Know Tab

SONG = YOU NEVER KNOW
BAND = SECTOR SEVEN


E------------------------------------------------
B------------------------------------------------
G--------------------------------------6-5-3-----   <---------- X 3
D------------4----------4-----------4--6-5-3-----
A------------4----------4-----------4--4-3-1----
E--0-0-0-0-2-0-0-0-0-2-0-0-0-0-2----------------

E----------------------------------------------------------
B----------------------------------------------------------
G---------------------------------6-5-6-5-6-5-6-5-6-5-3----
D--------4--------4--------4----6-5-6-5-6-5-6-5-6-5-4-3-4--
A--------4--------4--------4----4-3-4-3-4-3-4-3-4-3-2-1-4--
E-0000-2-0000--2-0000-2---------------------------------2--

E-----------------------------------------------------<----X2
B-----------------------------------------------------
G---------6-------7------6-------------------------6---9---11-
D--4------4-------7------6--------7-6-4------4-----4---7---9-
A--4--------------5------4--------7-6-4------4----------------
E--2------------------------------5-4-2------2-----------------
[ Tab from: http://www.guitartabs.cc/tabs/s/sector_seven/you_never_know_tab.html ]
E---------------------------------------------------------------
B---------------------------------------------------------------
G--------------------------7------6-----------------------------
D-4-4-4-4-4----4-4-4-4-4---7------6--------7-6-4--------------- <----X4
A-4-4-4-4-4----4-4-4-4-4---5------4--------7-6-4---------------
E-2-2-2-2-2-0-2-2-2-2-2--------------------5-4-2----------------

E-----------------------------------------------------
B------------------------------------------------------  <-----X2
G------------6-----7----6--------------------6---6--7--6----
D-4----2-----6-----7----6-----7-6-4------4---4---6--7--6--7--6-4---
A-4----2-----4-----5----4-----7-6-4------4-------4--5--4--7--6-4---
E-2----0----------------------5-4-2------2----------------5--4-2--

E-------------------------------------------------
B-----------------------------------------------   <--------- X2
G-------------------------------7-6-------------
D--------4--------4-------4-----7-6---------4-------4--------4-------5-
A--------4--------4-------4-----5-4---------4-------4--------4-------5-
E-0000---2-0000---2-0000--2--0------0000----2-0000--2-0000---2--0----3-

E----------------------------------------------
B----------------------------------------------
G----6-/-7--2--6-/-7--4--6-/-7--9---6-6-6-7-6--
D-4--6-/-7--2--6-/-7--4--6-/-7--9---6-6-6-7-6-4-  <--------X4
A-4--4-/-5--0--4-/-5--2--4-/-5--7---4-4-4-5-4-4-
E-2-------------------------------------------2-

/ = SLIDE
Comments