Sector Seven - Honest Liar Chords & Tabs

 

Honest Liar Chords & Tabs

Sector Seven Chords & Tabs

Version: 1 Type: Tab 0 ratings
1 star 2 stars 3 stars 4 stars 5 stars
comments

Honest Liar Tab

   
Song: Honest Liar
Artist: Sector Seven
As tabbed by Joe Muggah


Verse A (Guitar 1)
e------------------------------------------------------------
B------------------------------------------------------------
G------------------3-x-x-x-x-------------------------6-6--5\-
D-5-x-x-x-x-3-5-3--3-x-x-x-x-5-3-5--5-x-x-x-x-3-5-3--6-6--5\-
A-5-x-x-x-x-3-5-3--1-x-x-x-x-5-3-5--5-x-x-x-x-3-5-3--4-4--3\-
E-3-x-x-x-x-1-3-1------------3-1-3--3-x-x-x-x-1-3-1----------

(continued)
e------------------------------------------------------------
B------------------------------------------------------------
G------------------3-x-x-x-x---------------------------------
D-5-x-x-x-x-3-5-3--3-x-x-x-x-5-3-5--5-x-x-x-x-3-5-3----------
A-5-x-x-x-x-3-5-3--1-x-x-x-x-5-3-5--5-x-x-x-x-3-5-3----------
E-3-x-x-x-x-1-3-1------------3-1-3--3-x-x-x-x-1-3-1----------

(continued)
e------------------------------------------------------------
B------------------------------------------------------------
G--6-6-6-6-6-6-6-6--5-5-5--6-6--5\---------------------------
D--6-6-6-6-6-6-6-6--5-5-5--6-6--5\---------------------------
A--4-4-4-4-4-4-4-4--3-3-3--4-4--3\---------------------------
E------------------------------------------------------------


Verse B (Guitar 2)
e------------------------------------------------------------
B------------------------------------------------------------
G--12-x-x-x-x-10/12\10--15-x-x-x-x--12/10\12--12-x-x-x-x-----
D--12-x-x-x-x-10/12\10--15-x-x-x-x--12/10\12--12-x-x-x-x-----
A--10-x-x-x-x--8/10\-8--13-x-x-x-x--10/-8\10--10-x-x-x-x-----
E------------------------------------------------------------

(continued)
e------------------------------------------------------------
B------------14-14--13\--------------------------------------
G--10/12\10--13-13--12\---12-x-x-x-x-10/12\10--15-x-x-x-x----
D--10/12\10--11-11--10\---12-x-x-x-x-10/12\10--15-x-x-x-x----
A---8/10\-8---------------10-x-x-x-x--8/10\-8--13-x-x-x-x----
E------------------------------------------------------------
[ Tab from: http://www.guitartabs.cc/tabs/s/sector_seven/honest_liar_tab.html ]
(continued)
e------------------------------------------------------------
B-----------------------------------14-14-14-14-14-14-14-14--
G--12/10\12--12-x-x-x-x---10/12\10--13-13-13-13-13-13-13-13--
D--12/10\12--12-x-x-x-x---10/12\10--11-11-11-11-11-11-11-11--
A--10/-8\10--10-x-x-x-x----8/10\-8---------------------------
E------------------------------------------------------------

(continued)
e------------------------------------------------------------
B--13-13-13--14-14--13\--------------------------------------
G--12-12-12--13-13--12\--------------------------------------
D--10-10-10--11-11--10\--------------------------------------
A------------------------------------------------------------
E------------------------------------------------------------

Riff 
e------------------------------------------------------------
B------------------------------------------------------------
G-----------------------------3------------------------------
D--5--------5--------3--------3--------5\3--5--------5-------
A--5--------5--------3--------1-1m-1m--5\3--5--------5-------
E--3-3m-3m--3-3m-3m--1-1m-1m-----------3\1--3-3m-3m--3-3m-3m-

(continued)
e------------------------------------------------------------
B------------------------------------------------------------
G--6--------5--------6---------------------------------------
D--6--------5--------6--------5--------5--------3------------
A--4-4m-4m--3-3m-3m--4-4m-4m--5--------5--------3------------
E-----------------------------3-3m-3m--3-3m-3m--1-1m-1m------

(continued)
e------------------------------------------------------------
B------------------------------------------------------------
G--3-------------6--------6--------5---------6--------5------
D--3--------5\3--6--------6--------5---------6--------5------
A--1-1m-1m--5\3--4-4m-4m--4-4m-4m--3m-3m-3m--4-4m-4m--3-3m---
E-----------3\1----------------------------------------------

Bridge                         Fill
e-----------------------------|------------------------------
B-----------------------------|------------------------------
G--4-4-4-4-4-4-4-4-4-4-4-4-4--|--5-4---------------5-4-------
D--5-5-5-5-5-5-5-5-5-5-5-5-5--|------------------------------
A--5-5-5-5-5-5-5-5-5-5-5-5-5--|------------------------------
E--3-3-3-3-3-3-3-3-3-3-3-3-3--|------------------------------


Verse A, B
Verse A
Riff
Verse A
Bridge, Fill
Verse A
Riff
Verse A, Solo (not tabbed)

There is a really aweosme solo in this song, but it's too
hard to hear to tab. Too bad.
Comments