Secrets - Ready For Repair Chords & Tabs

 

Ready For Repair Chords & Tabs

Secrets Chords & Tabs

Version: 1 Type: Tab 0 ratings
1 star 2 stars 3 stars 4 stars 5 stars
comments

Ready For Repair Tab

   
Drop B

Intro =

Chorus =

B |-------------------|-------------------|
F#|-------------------|-------------------|
B |-------------------|-------------------|
E |-7-7-7--10~-10-5-3-|3-3--0~---10-------|
G#|-7-7-7--10~-10-5-3-|3-3--0~---10-------|
C#|-7-7-7--10~-10-5-3-|3-3--0~---10-------|

|-------------------|-------------------|
|-------------------|-------------------|
|-------------------|-------------------|
|-7-7-7--10~-10-5-3-|3-3-3-3-3-3--2-2---|
|-7-7-7--10~-10-5-3-|3-3-3-3-3-3--2-2---|
|-7-7-7--10~-10-5-3-|3-3-3-3-3-3--2-2---|

Verse =

|-------------------|-------------------|
|-------------------|-------------------|
|-------------------|-------------------|
|-------------------|-------------------|
|-------------------|-------------------|
|7-7-7-7-7-10-7-7-7-|7-7-3-3-3-3-3-3-3-3|

|-------------------|-------------------|
|-------------------|-------------------|
|-------------------|-------------------|
|-------------------|-------------------|
|-------------------|-------------------|
|-3-3-2-7-7-7-7-7-10|-7-7-7-7-7-3-3-3-3-|

|-------------------|-------------------|
|-------------------|-------------------|
|-------------------|-------------------|
|---------------7---|-5-----10-----5----|
|---------------7(x4|-5(x2)-10(x4)-5(x2)|
|3-3-3-3-3-3-2--7---|-5-----10-----5----|

|-------------------|-------------------|
|-------------------|-------------------|
|-------------------|-------------------|
|-3-----2------7----|-5-----10-----5----|
|-3(x8)-2(x2)--7(x4)|-5(x2)-10(x4)-5(x2)|
|-3-----2------7----|-5-----10-----5----|

|-------------------|-------------------|
|-------------------|-------------------|
|-------------------|-------------------|
|-3------3~----0~---|-------------------|
|-3(x8)--3~----0~---|-------------------|
|-3------3~----0~---|-10-10-10-10-------|

Return To Chorus(x2)

Verse 2 =

|-------------------|-------------------|
|-------------------|-------------------|
|-------------------|-------------------|
|-------------------|-------------------|
|-------------------|-------------------|
|7-7-7-7-7-10-7-7-7-|7-7-3-3-3-3-3-3-3-3|

|-------------------|-------------------|
|-------------------|-------------------|
|-------------------|-------------------|
|-------------------|-------------------|
|-------------------|-------------------|
|-3-3-2-7-7-7-7-7-10|-7-7-7-7-7-3-3-3-3-|
[ Tab from: http://www.guitartabs.cc/tabs/s/secrets/ready_for_repair_tab.html ]
|-------------------|-------------------|
|-------------------|-------------------|
|-------------------|-------------------|
|------------------7|------3------0-----|
|------------------7|(x5)--3(x5)--0(x5)-|
|3-3-3-3-3-3-2-----7|------3------0-----|

|-------------------|-------------------|
|-------------------|-------------------|
|-------------------|-------------------|
|-2------7------3---|--0------2-----3~--|
|-2(x5)--7(x5)--3(x5|--0(x5)--2(x5)-3~--|
|-2------7------3---|--0------2-----3~--|

|-------------------|
|-------------------|
|-------------------|
|-----------0-------|
|-----------0-------|
|-5-5-5-5-5-0-------|

Return To Chorus(x2)

Bridge =

|-------------------|-------------------|
|-------------------|-------------------|
|-------------------|-------------------|
|--------3~---------|7~--2~-------------|
|--------3~---------|7~--2~-------------|
|3-3-3-3-3~-7-7-7-7-|7~--2~--9-10--3-3-3|

|-------------------|-------------------|
|-------------------|-------------------|
|-------------------|-------------------|
|---3~---------7~---|-----2---------3~--|
|---3~---------7~---|-----2---------3~--|
|-3-3~-7-7-7-7-7~---|9-10-2-3-3-3-3-3~-7|

|-------------------|-------------------|
|-------------------|-------------------|
|-------------------|-------------------|
|-------7~-2~-------|--------3~---------|
|-------7~-2~-------|--------3~---------|
|-7-7-7-7~-2~-10-9--|3-3-3-3-3~-7-7-7-7-|

|-------------------|-------------------|
|-------------------|-------------------|
|-------------------|-------------------|
|7~--------2--------|-------------------|
|7~--------2-3-3-3-3|-0-0-0-0-7-7-7-7-5-|
|7~-9-10-9-2-3-3-3-3|-0-0-0-0-7-7-7-7-5-|

|-------------------|-------------------|
|-------------------|-------------------|
|-------------------|-------------------|
|-------------------|-------------------|
|5-5-5-3-3-3-3-0-0-0|-0-7-7-7-7-5-5-5-5-|
|5-5-5-3-3-3-3-0-0-0|-0-7-7-7-7-5-5-5-5-|

Return To Chorus(x2)

Outro =

|-------------------|-------------------|
|-------------------|-------------------|
|-------------------|-------------------|
|7-7-7--7-7-7--3-3-3|--3-3-3--0-0-0--0-0|
|7-7-7--7-7-7--3-3-3|--3-3-3--0-0-0--0-0|
|7-7-7--7-7-7--3-3-3|--3-3-3--0-0-0--0-0|

|-------------------|-------------------|
|-------------------|-------------------|
|-------------------|-------------------|
|-0--2-2-2--2-2-2--7|-7-7--7-7-7--3-3-3-|
|-0--2-2-2--2-2-2--7|-7-7--7-7-7--3-3-3-|
|-0--2-2-2--2-2-2--7|-7-7--7-7-7--3-3-3-|

|-------------------|-------------------|
|-------------------|-------------------|
|-------------------|-------------------|
|-3-3-3--0-0-0--0-0-|0-2-2-2--2-2-2---7~|
|-3-3-3--0-0-0--0-0-|0-2-2-2--2-2-2---7~|
|-3-3-3--0-0-0--0-0-|0-2-2-2--2-2-2---7~|

The End
Comments