Secret Machines - Sad And Lonely Chords & Tabs

 

Sad And Lonely Chords & Tabs

Secret Machines Chords & Tabs

Version: 1 Type: Bass Tab 0 ratings
1 star 2 stars 3 stars 4 stars 5 stars
comments

Sad And Lonely Bass Tab

I play electric guitar, but noticed theres no tab to be found for this great song.
After tabbing it for guitar i thought you bassists might be feeling left out so you
are.lol. Great bass solo. any corrections send to lazyrob_04@hotmail.com

verse.

either play:

G|-------------------------------------------------------------------------|
D|-------------------------------------------------------------------------|
A|-------------------------------------------------------------------------|
E|---5----5----5-5-5----5-5--5---------5----5-----5-5-5-----5-5--5---------|

or:

G|-------------------------------------------------------------------------|
D|-------------------------------------------------------------------------|
A|---0----0----0-0-0----0-0--0---------0----0-----0-0-0-----0-0--0---------|
E|-------------------------------------------------------------------------|

Chorus.

 "...Are you a lone"
[ Tab from: http://www.guitartabs.cc/tabs/s/secret_machines/sad_and_lonely_btab.html ]
G|-------------------------------------------------------------------------|
D|-------------------------------------------------------------------------|
A|---5----5----5-5-5----5-5--5---------------------------------------------|
E|-------------------------------------------------------------------------|

"...and it feels like those around want you to die, are you alive."

G|-------------------------------------------------------------------------|
D|-------------------------------------------------------------------------|
A|---------7-7-7-7---------9-9-9-9---------5-5-5-5-----(back to verse)-----|
E|-------------------------------------------------------------------------|

That's pretty much it apart from the solo.

G|----------------------------------------------------=-----|
D|---------------------------------------------------=------|
A|-------------------------------------------------==-------|
E|---5----5----5-5-5-5/0-----5-5----5----5-5-5-5/0----------|

G|----------------------------------------------------------|
D|----------------------------------------------------------|
A|----------------------------------------------------------|
E|-5-5----5----5-5-5-8----5--3-5-8----11--10----8--5--------|

Then after the guitar solo just use the notes from the chorus (7,9,5) repeated 3 times
and go back to the verse.
Comments