Secret Machines - Nowhere Again Chords & Tabs

 

Nowhere Again Chords & Tabs

Secret Machines Chords & Tabs

Version: 3 Type: Tab 0 ratings
1 star 2 stars 3 stars 4 stars 5 stars
comments

Nowhere Again Tab

This is my first tab WOO HOO. k so i hope this is good, i think that some of the piano
in the song got mixed in with some of this so that may be the bass line here. E MAIL ME
and let me no wat u think!!!!!(Jokesterskater@msn.com)


    INTRO 1
e |-------- you             ---------------------------------|
b |---(9)-- play this       ---------------------------------|
g |----9--- a few times     ---------------------------------|
D |----9---                 --9-9-9-9--7-7-7-7--6-6-6-6------|
A |----7---                 ---------------------------------|
E |--------                 -7-7-7-7--7-7-7-7--7-7-7-7-------|

---------------------------------|
---------------------------------|
---------------------------------|
---7-7-7-7-----------------------|
---------------------------------|                and so on....
--7-7-7-7------------------------|    you do this about 16 times

then you go into this.

e------------------------------------------|
b--(9)------(14)------(13)------(9)--------|
g---9-Eight--14-eight--13-eight--9-eight---|
D---9-times--14-times--13-times--9-times---|
A---7--------12--------11--------7---------|
E---you kinda slide on all of these--------|

Then the bridge is like this
[ Tab from: http://www.guitartabs.cc/tabs/s/secret_machines/nowhere_again_tab_ver_3.html ]
e-------------------------------------------------|
b---(4)------------------(4)----------------------|
g----4-twelve--(7)--------4-twelve--(7)-----------|
D----4-times----7-twelve--4-times----7-twelve-----|
A----2----------7-times---2----------7-times------|
E---------------5--------------------5------------|

e-------------------------------------------------|
b-------------------------------------------------|
g-(9)---(9)---(9)---(9)---------------------------|
D--9-----9-----9-----9----------------------------|
A--9-----9-----9-----9----------------------------|
E--7-----7-----7-----7----------------------------|
    these are each held a little bit

then the end is like this

e-------------------------------------------------|
b--(9)----------------(9)-------------------------|
g---9-eight--(9)-------9-seven--------------------|
D---9-times---9-eight--9-times--------------------|
A---7---------9-times--7--------------------------|
E-------------7-----------------------------------|
         these are all staccotoed

e-------------------------------------------------|
b-------------------------------------------------|
g--------(9)-___________________________________--|
D---------9-____________________________________--|
A---------9-____________________________________--|
E---------7-_____(you hold this for a while)____--|
Comments