Secondhand Serenade - Your Call Chords & Tabs

 

Secondhand Serenade Chords & Tabs

Version: 1 Type: Tab 0 ratings
1 star 2 stars 3 stars 4 stars 5 stars
comments

Your Call Tab

---------------------------------------------
     "Your Call" - Secondhand Serenade

http://www.purevolume.com/secondhandserenade
---------------------------------------------
Tabbed by: Justin RiRaY
Email: Pakman7JR@hotmail.com   AIM: BeatPwner

Tuning: eBGDAE


     INTRO/VERSE
 
e|------------------------------------------|
B|------------------------------------------|
G|------0--------0--------0--------0--------|
D|----0---0----4---0----5---5----5---0------|
A|--3--------5--------7--------7------------|
E|------------------------------------------|


     CHORUS
[ Tab from: http://www.guitartabs.cc/tabs/s/secondhand_serenade/your_call_tab.html ]
e|------------------------------------------|
B|------------------------------------------|
G|------0--------0--------0--------0--------|
D|----0---0----0---0----4---4----4---4------|
A|--------------------5--------5------------|
E|--3--------3------------------------------|
 
e|------------------------------------------|
B|------------------------------------------|
G|------0--------0--------0--------0--------|
D|----5---5----5---5----0---0----0---0------|
A|--7--------7--------3--------3------------|
E|------------------------------------------|
 
e|------------------------------------------|
B|------------------------------------------|
G|------0--------0--------0--------0--------|
D|----0---0----0---0----4---4----4---4------|
A|--------------------5--------5------------|
E|--3--------3------------------------------|
 
e|------------------------------------------|
B|------------------------------------------|
G|-----0--------0------0----0----0----0-(0~)|
D|---5---5----5---5---0-0--0-0--0-0--0-0(0~)|
A|-7--------7--------3----3----3----3---(3~)|
E|------------------------------------------|
                                      (outro)

     Post-CHORUS
 
e|-------------|   |----------------------|
B|-------------|   |----------------------|
G|-------------|   |---0----0----0----0---|
D|-------------|   |--0-0--4-0--5-5--5-0--|X2
A|--3--5-------|X4 |-3----5---------------|
E|--------0--0-|   |-----------0----0-----|



     BRIDGE
 
e|------------------------------------------|
B|------------------------------------------|
G|------0--------0--------0--------0--------|
D|----5---5----4---4----0---0----4---4------|
A|--7--------5--------3--------5------------|
E|------------------------------------------|

little dingy thing   e|-10-10-10-8-7--7--8--|
     
     song order
INTRO X2
VERSE X6
CHORUS X2
Post-CHORUS
CHORUS X2
BRIDGE X4
CHORUS X4
(outro)
Comments