Secondhand Serenade - Vulnerable Chords & Tabs

 

Vulnerable Chords & Tabs

Secondhand Serenade Chords & Tabs

Version: 3 Type: Tab

Vulnerable Tab

Vulnerable
By: Secondhand Serenade
Email: butolbuttsy@yahoo.com

a really geat song.
actually this is the first tab that I submitted...
hope u like it!

Try to figure out the strumming by yourself, 
Its actually easy...just listen to the music.

Tuning: Standard

Verse 1 & 2:
Share with me…
E|--3---3---3---1---1---1---|
B|--3---3---3---1---1---1---|
G|--5---5---5---2---2---2---| 3x
D|--5---5---5---3---3---3---|
A|--3---3---3---3---3---3---|
E|--3---3---3---1---1---1---|

Because its cold…
E|---x---3---|
B|---x---3---|
G|---x---4---|
D|---7---5---|
A|---7---5---|
E|---5---3---|

Pre-Chorus:

And your slow…

E|---1--1------3--3-----x---x---x---
B|---1--1------3--3-----x---x---x---3---3---3|
G|---2--2------5--5-----x---x---x---4---4---4|
D|---3--3------5--5-----7---7---7---5---5---5|
A|---3--3------3--3-----7---7---7---5---5---5||
E|---1--1------3--3-----5---5---5---3---3---3|

And I know….
E|---1--1----x---x---x---3---3---3|
B|---1--1----x---x---x---3---3---3|
G|---2--2----x---x---x---4---4---4|
D|---3--3----7---7---7---5---5---5|
A|---3--3----7---7---7---5---5---5|
E|---1--1----5---5---5---3---3---3|

Chorus:
[ Tab from: http://www.guitartabs.cc/tabs/s/secondhand_serenade/vulnerable_tab_ver_3.html ]
Tell me, tell me…
E|---3--3---3--3--3----1--1---1|
B|---3--3---3--3--3----1--1---1|
G|---5--5---4--4--4----2--2---2|
D|---5--5---5--5--5----3--3---3|
A|---3--3---3--3--3----3--3---3|
E|---3--3---3--3--3----1--1---1|

I can see it in your eyes…
E|---x--x---3---3----3---3---|
B|---x--x---3---3----3---3---|
G|---x--x---4---4----5---5---|
D|---7--7---5---5----5---5---|
A|---7--7---5---5----3---3---|
E|---5--5---3---3----3---3---|

…that I am the only one that’s vulnerable…
E|---3--3---3--3--3----1--1---1|
B|---3--3---3--3--3----1--1---1|
G|---5--5---4--4--4----2--2---2|
D|---5--5---5--5--5----3--3---3|
A|---3--3---3--3--3----3--3---3|
E|---3--3---3--3--3----1--1---1|

Breakdown:

Slow down girl…           
E|---1--1---3--3---x--x---|
B|---1--1---3--3---x--x---|
G|---2--2---4--4---x--x---|
D|---3--3---5--5---7--7---|
A|---3--3---5--5---7--7---|
E|---1--1---3--3---5--5---|

E|---1--1--1--1---3---3---x---x---x---x---3---3|
B|---1--1--1--1---3---3---x---x---x---x---3---3|
G|---2--2--2--2---4---4---x---x---x---x---5---5|
D|---3--3--3--3---5---5---5---7---9---9---5---5|   3x
A|---3--3--3--3---5---5---7---7---9---9---3---3|
E|---1--1--1--1---3---3---5---5---7---7---3---3|

E|---1--1--1--1---3---3|
B|---1--1--1--1---3---3|
G|---2--2--2--2---4---4|
D|---3--3--3--3---5---5|
A|---3--3--3--3---5---5|
E|---1--1--1--1---3---3|

Back to chorus…

Done!

I hope u liked it
Any comments? Just email me at butolbuttsy@yahoo.com