Second Hand Smoke - Smoke That Never Goes Away Chords & Tabs

 

Smoke That Never Goes Away Chords & Tabs

Second Hand Smoke Chords & Tabs

Version: 1 Type: Tab 0 ratings
1 star 2 stars 3 stars 4 stars 5 stars
comments

Smoke That Never Goes Away Tab

		intor


-----------5---------5----------4
-----------5---------5----------4
---------------------------------
---------------------------------
---------------------------------
[ Tab from: http://www.guitartabs.cc/tabs/s/second_hand_smoke/smoke_that_never_goes_away_tab.html ]
cores
----------4-------4-------5------
----------4-------4-------5------


solo	


---------------------
---------------------
---------------------
---------------------
---------------------
6---9---5-----2-2-2

Comments