Second Coming - Vintage Eyes Chords & Tabs

 

Vintage Eyes Chords & Tabs

Second Coming Chords & Tabs

Version: 1 Type: Tab 0 ratings
1 star 2 stars 3 stars 4 stars 5 stars
comments

Vintage Eyes Tab

Artist:Second Coming    
Album: Second Coming    
Song: Vintage Eyes
TAbbed By: charles ( soulfiy777@aol.com )
[ Tab from: http://www.guitartabs.cc/tabs/s/second_coming/vintage_eyes_tab.html ]
tunned regularly
INTRO/Chorus
      x x x x                               X2 then
e:--2------------2-2-2-2--2-2-2-2---------------------------
b:--2------------3-3-3-3--2-2-2-2---------------------------
g:--3------------4-4-4-4--3-3-3-3--------------------7-6-4---
D:--4-4-4-4-4----4-4-4-4--4-4-4-4--7-6-4---------------------
A:--4-4-4-4-4----2-2-2-2--4-4-4-4--5-5-5-------------5-5-5---
E:--2-2-2-2-2-------------2-2-2-2-----------------------------


VERSE:

e:-------------------------------------------
b:----2------2-------2------4--------------------
g:---2-2----2-2-------2---4--4----------------------
D:--2---2--3------2------4----4--------------------
A:-0------4------4------2--2----------------------
E:--------------2-----------------------------
Comments