Second Coming - Soft Chords & Tabs

 

Soft Chords & Tabs

Second Coming Chords & Tabs

Version: 1 Type: Tab 0 ratings
1 star 2 stars 3 stars 4 stars 5 stars
comments

Soft Tab

   
			"Soft" by Second Coming

Tabbed by Tony Grover
http://www.musicpage.de/blinded



   {0:12}	      {0:13}		      {0:17}
	(HX) (HX)	(HX) (HX) (HX)	[x5] 	(HX) (HX) (HX) (HX)
E  ------------------|-----------------------|----------------------|}
B  ------------------|----------------------.|----------------------|}
G  ------------------|-----------------------|----------------------|}
D  ------------------|-----------------------|----------------------|}
A  ------------------|----------------------.|----------------------|}
E  ------------------|-----------------------|----------------------|}

   Main Riff   
      			    
E  ----------------------------|}
B  ---------------------------.|}
G  ----------------------------|}
D  ----------------------------|}
A  --2--2---------2--2--2--4--.|}
E  --0--0--4H5P4--0--0--0--2---|}

Verse Chords (In order of playing)

	               [x2]
E  -----|-----|-----|-----|}
B  -----|-----|-----|-----|}
G  -----|-----|-----|-----|}
D  --6--|--4--|--2--|--4--|}
A  --4--|--2--|--0--|--2--|}
E  -----|-----|-----|-----|}

Chorus Chords (In order of playing)

   C#5	 A5    G#5    E5  F#5 C#5
   
E  -----|-----|-----|--------|-----|}
B  -----|-----|-----|--------|-----|}
G  -----|-----|-----|--------|-----|}
D  --6--|--2--|-----|--------|--6--|}
A  --4--|--0--|--6--|--2--4--|--4--|}
E  -----|-----|--4--|--0--2--|-----|}


   {2:10}  {2:12}  {2:15}  {2:17}			       {2:20}

E  -------|-------|-------|-----------------------------------|--------|}
B  -------|-------|-------|-----------------------------------|--------|}
G  -------|-------|-------|-----------------------------------|--------|}
D  -------|-------|-------|-----------------------------------|--------|}
A  ---6---|---2---|---6---|--(2)--(2)--(2)--(2)--(2)--(2)--2--|--6--6--|}
E  ---4---|---0---|---4---|--(0)--(0)--(0)--(0)--(0)--(0)--0--|--4--4--|}


Mute Break (Part A, In order of playing)
[ Tab from: http://www.guitartabs.cc/tabs/s/second_coming/soft_tab.html ]
   {2:20+}
      (HX)  (HX)  (HX)  (HX)  (HX)  (HX)  (HX)  (HX)  (HX) 
E  --------------------------------------------------------|}
B  --------------------------------------------------------|}
G  --------------------------------------------------------|}
D  --------------------------------------------------------|}
A  --------------------------------------------------------|}
E  --------------------------------------------------------|}


   {2:22+}				 {2:25} 

E  --------|}                  		E  --------|}      
B  --------|}	                      	B  --------|}
G  --------|}                         	G  --------|}
D  --------|}  Then Play Part A      	D  --------|}  Then Play Part A
A  --2--2--|}                        	A  --6--6--|}
E  --0--0--|}                        	E  --4--4--|}

   {2:27+}				   {2:30}

E  --------|}				E  --------------|}
B  --------|} 				B  --------------|}
G  --------|}				G  --------------|}
D  --------|}  Then Play Part A		D  --------------|}  Then Play Part A
A  --2--2--|}				A  --6--6--6--6--|}
E  --0--0--|}				E  --4--4--4--4--|}

   {2:33}				   {2:35}

E  --------------|}			E  --------------|}
B  --------------|} 			B  --------------|}
G  --------------|}			G  --------------|}
D  --------------|}  Then Play Part A	D  --------------|}  Then Play Part A
A  --2--2--2--2--|}			A  --6--6--6--6--|}
E  --0--0--0--0--|}			E  --4--4--4--4--|}

   {2:38}	
			   
E  --------------|}			
B  --------------|} 			
G  --------------|}			
D  --------------|}  Then Play Part A	  
A  --2--2--2--2--|}			
E  --0--0--0--0--|}			

   {2:40}

E  ------------------------------------------------------------|}
B  ------------------------------------------------------------|}
G  ------------------------------------------------------------|}
D  ------------------------------------------------------------|}
A  --6--6--6--6---4---6---6-6-6-6-6-6---2-2--2-2-2--2-2-2-2-2--|}
E  --4--4--4--4---2---4---4-4-4-4-4-4---0-0--0-0-0--0-0-0-0-0--|}


End

              [x2]
E  --------------|}--------------------------------|--------------|}
B  -------------.|}--------------------------------|--------------|}
G  --------------|}--------------------------------|--------------|}
D  --------------|}--------------------------------|--------------|}
A  --2--2--2--4-.|}--2--2--2--4--2--2--4--2--2--4--|--2--2--2--4--|}
E  --0--0--0--2--|}--0--0--0--2--0--0--2--0--0--2--|--0--0--0--2--|}






Comments