Sear Bliss - Twilight Chords & Tabs

 

Twilight Chords & Tabs

Sear Bliss Chords & Tabs

Version: 1 Type: Tab 0 ratings
1 star 2 stars 3 stars 4 stars 5 stars
comments

Twilight Tab

   
Artist: Sear Bliss
Album: The Pagan Winter
Song: Twilight
Tabbed By: Daniel Molnar (DuckDan008@cs.com)

Tuning: (low to high) C-F-Bb-Eb-G-C

Index:
Pm: Palm Mute
H: Hammer-on
P: Pull-off
~: Vibrato, let ring
*: Tremolo pick

Intro:
|----------------------------------------------------------
|----------------------------------------------------------
|----------------------------------------------------------
|-2h3p2p0-0h2--0-3-2~---2h3p2p0-0h2--0-3-2~----0h2------------
|-0---------------------0----------------------------------
|----------------------------------------------------------

|----------------------------------------------------------
|----------------------------------------------------------
|----------------------------------------------------------
|-5-5-5-5-5-5-5-5-4-4-4-4-4-4-4-4--------------------------
|-5-5-5-5-5-5-5-5-4-4-4-4-4-4-4-4--------------------------
|-3-3-3-3-3-3-3-3-2-2-2-2-2-2-2-2--------------------------
Pm. . . . . . . . . . . . . . . .
[ Tab from: http://www.guitartabs.cc/tabs/s/sear_bliss/twilight_tab.html ]
Chorus:
|----------------------------------------------------------
|----------------------------------------------------------
|----------------------------------------------------------
|-2*---3*---3*---/8--5*---3-3------------------------------
|-2*---3*---3*---/8--5*---3-3------------------------------
|-0*---1*---5*---/6--7*---1-1------------------------------
                        Pm. .
Verse:
|-------------------------------------------------|-----0h1
|-------------------------------------------------|--------
|----------------------------------------------5~-|--------
|-0--3-2-----0--3-2---2-3--/7--5--3-2-3-2-0~---5~-|-2-3----
|-------3-0---------3--------------------------3~-|--------
|-------------------------------------------------|--------
                                                  Pm. .
Interlude:
|----------------------------------------------------------
|----------------------------------------------------------
|-----2----------3~----------------------------------------
|-2---2---3~---3-3~---2------------------------------------
|-2---0---3~---3-5~-----3-2-3-2~---------------------------
|-0-------1~---1-------------------------------------------

Repeat Chorus
Repeat Verse
Comments