Seals Dan - Id Really Love To See You Tonight Chords & Tabs

 

Id Really Love To See You Tonight Chords & Tabs

Seals Dan Chords & Tabs

Version: 1 Type: Tab 0 ratings
1 star 2 stars 3 stars 4 stars 5 stars
comments

Id Really Love To See You Tonight Tab

I'D REALLY LOVE TO SEE YOU TONIGHT
Dan Seals

johnsantos_17@yahoo.com

standard tuning: (EADGBE)
capo on 1st fret

Intro:

E----0-3-----0-2------0-2---3-2-0-----
B---3-------3--------3---3------------
G--2-------2--------2-----------------
D-0----------------------------------
A--------2--------3--------------------
E---------------------------3-2-0------

Verse:

E-------0----------0----2--2-------------
B-0--2--3----0--2--3----2--3--3--2-------
G-0--2--2----0--2--2----2--2--0--2-------
D-2--2--0----2--2--0----2--4--0--2-------
A-2--0-------2--0-------4--2--2--0-0-----
E-0----------0----------2-----3------3-2-

E-------0----------0----2--2------------
B-0--2--3----0--2--3----2--3--2-3-2-0---
G-0--2--2----0--2--2----2--2--2-2-2-2---
D-2--2--0----2--2--0----2--4--2---------
A-2--0-------2--0-------4--2--0---------
E-0----------0----------2---------------

Chorus:
[ Tab from: http://www.guitartabs.cc/tabs/s/seals_dan/id_really_love_to_see_you_tonight_tab.html ]
E-------0----------3-2-0-----
B-3--2--3----3--2--3-----3-------
G-0--2--2----0--2--2-----------
D-0--2--0----0--2--0------------
A-2--0-------2--0-------------
E-3----------3--------------

E---------------
B-3--2--2/3---2-
G-0--2--2/2---2-
D-0--2--2/4---2-
A-2--0--4/2---0-
E-3-----2/------

Bridge:

E----0-2-0-|-------------0-2-0--
B---3------|-3--2--3--2--3------
G--2-------|-2--2--0--2--2------
D-0--------|-4--2--0--2--0------
A----------|-2--4--2--0-------
E----------|----2--3--------

E-----------------
B-3--2--2-2-3-2-0-
G-2--2--2-2-2-2-2-
D-4--2--2-2-------
A-2--4--0-0-------
E----2------------

Outro:

E----0-3-----0-2------0-2---3-2-0--------
B---3-------3--------3---3---------2sl/3--
G--2-------2--------2--------------2---2--
D-0--------------------------------0---0---
A--------2--------3-----------------------
E---------------------------3-2-0---------

=====()w&_17=====
Comments