Seals And Croft - Summer Breeze Correct Chords & Tabs

 

Summer Breeze Correct Chords & Tabs

Seals And Croft Chords & Tabs

Version: 1 Type: Tab 3 ratings
1 star 2 stars 3 stars 4 stars 5 stars
comments

Summer Breeze Correct Tab

Here is the correct way to play summer breeze by Seals and Croft. It's a great song and you need to learn to play it right.


E--------------------0----------
B--------------------1----------
G---------------0----0----------    Play 
D---------------2----2----------   2wice
A---------2-----0----3----------
E----0---------------0----------
[ Tab from: http://www.guitartabs.cc/tabs/s/seals_and_croft/summer_breeze_correct_tab.html ]
This next part is played as some other instrument in the song, but I tabbed it out for guitar, and it sounds great! Have someone else play the top part while you play the bottom and you have the intro to summer breeze. 

E---------------10-----7------5------3-------2-------0-------------------
B----------8--------------------------------------------------3-------5--
G----9-------------------------------------------------------------------
D------------------------------------------------------------------------
A------------------------------------------------------------------------
E------------------------------------------------------------------------

Then it goes into some chords which I think are G, D, A and C.
Enjoy!

Tabbed by the Setup
Comments