Seal - Kiss By A Rose Chords & Tabs

 

Kiss By A Rose Chords & Tabs

Seal Chords & Tabs

Version: 1 Type: Bass Tab 0 ratings
1 star 2 stars 3 stars 4 stars 5 stars
comments

Kiss By A Rose Bass Tab

Seal- Kiss by a rose



Hey guys a short note before you start. I deduced this tab from the guitar and a bit of figuring out.
 Its just a quick guess but its fairly close. im open to criticism or suggestions though! enjoy 

Tabbed by 99JAN99


Guitar intro.
come in at 0:22

verse:

G|------------------------|
D|------------------------|		X 1  there used to be a graying tower.....
A|--------------3--5------|	X 3	X 2  you became the light.........
E|-0--0-----------------0-|		X 3  love remains......


G|------------------------|
D|------------------------|
A|--------------3--5------|	did you know that.....
E|----0-----------------0-|


G|------------------------|
D|------------------------|
A|----3---------5---------|	and the light....
E|------------------0---0-|


Chorus:



G|------------------------|
D|------------------------|		X 1  baby I feel.....
A|--------------3--5------|	X 2	X 2  the more you....
E|-0--------------------0-|


G|------------------------|
D|------------------------|	now that your rose is.....
A|--------3--5-3---5------|	
E|0------------------0--0-|



This is the solo part. (play this along with guitar)

G|--------||---0----------|---2---2---2--|-----1--------|-----1--------|
D|--------||--------------|-0------------|---2----------|---2----------|
A|--------||-3------------|--------------|--------------|--------------|
E|--------||--------------|--------------|-0------------|-0------------|

G|---0----------|---2---2---2--|-----1--------|------------||
D|--------------|-0------------|---2----------|------------||
A|-3------------|--------------|--------------|------------||
E|--------------|--------------|-0------------|-0----------||


verse 2:


G|------------------------|
D|------------------------|		X 1  there used to be a graying tower.....
A|--------------3--5------|	X 3	X 2  you became the light.........
E|-0--0-----------------0-|		X 3  love remains......


G|------------------------|
D|------------------------|
A|--------------3--5------|	did you know that.....
E|----0-----------------0-|


G|------------------------|
D|------------------------|
A|----3---------5---------|	and the light....
E|------------------0---0-|




Chorus:



G|------------------------|
D|------------------------|		X 1  baby I feel.....
A|--------------3--5------|	X 2	X 2  the more you....
E|-0--------------------0-|


G|------------------------|
D|------------------------|	now that your rose is.....
A|--------3--5-3---5------|	
E|0------------------0--0-|


[ Tab from: http://www.guitartabs.cc/tabs/s/seal/kiss_by_a_rose_btab.html ]
This is the solo part. (play this along with guitar)
G|--------||---0----------|---2---2---2--|-----1--------|-----1--------|
D|--------||--------------|-0------------|---2----------|---2----------|
A|--------||-3------------|--------------|--------------|--------------|
E|--------||--------------|--------------|-0------------|-0------------|

G|---0----------|---2---2---2--|-----1--------|------------||
D|--------------|-0------------|---2----------|------------||
A|-3------------|--------------|--------------|------------||
E|--------------|--------------|-0------------|-0----------||


Interlude:			(The ive been kissed part)



G|------------------------|
D|------------------------|
A|5--5--0---------------5-|	ive been kissed....
E|------------3-----------|


G|------------------------|
D|------------------------|
A|5--5--0-----------------|	ive been kissed....
E|------------3-----------|


G|------------------------|
D|------------------------|
A|5--5--0---------------5-|	ive been kissed....
E|------------3-----------|


G|------------------------|
D|------------------------|
A|5--5--0-----------------|	ive been kissed....
E|------------3---------0-|


verse 3:

G|------------------------|
D|------------------------|		X 1  there used to be a graying tower.....
A|--------------3--5------|	X 3	X 2  you became the light.........
E|-0--0-----------------0-|		X 3  love remains......


G|------------------------|
D|------------------------|
A|--------------3--5------|	did you know that.....
E|----0-----------------0-|


G|------------------------|
D|------------------------|
A|----3---------5---------|	and the light....
E|------------------0---0-|


Chorus:



G|------------------------|
D|------------------------|		X 1  baby I feel.....
A|--------------3--5------|	X 2	X 2  the more you....
E|-0--------------------0-|


G|------------------------|
D|------------------------|	now that your rose is.....
A|--------3--5-3---5------|	
E|0------------------0--0-|



This is the solo part. (play this along with guitar)
G|--------||---0----------|---2---2---2--|-----1--------|-----1--------|
D|--------||--------------|-0------------|---2----------|---2----------|
A|--------||-3------------|--------------|--------------|--------------|
E|--------||--------------|--------------|-0------------|-0------------|

G|---0----------|---2---2---2--|-----1--------|------------||
D|--------------|-0------------|---2----------|------------||
A|-3------------|--------------|--------------|------------||
E|--------------|--------------|-0------------|-0----------||
Comments