Seahorses - Love Me And Leave Me Chords & Tabs

 

Love Me And Leave Me Chords & Tabs

Seahorses Chords & Tabs

Version: 2 Type: Tab 0 ratings
1 star 2 stars 3 stars 4 stars 5 stars
comments

Love Me And Leave Me Tab

   
Tab submitted by: Digs - digs@totalise.co.uk

Artist: The Seahorses
Song: Love me and Leave me

From the album - Do it Yourself

This song was written by Liam Gallagher and John Squire and is pretty tricky
in certain places. However, it gets easier with a bit of practice.

Standard tuning.

Chords: Em   - 022000
	Em7  - 022030
	Em6  - 022020
	A    - X02220
	A7   - X02020
	D    - XX0232
	Dmaj7- XX0222
	Dm   - XX0231
	G    - 320003
	F#7  - 244320
	Bm   - X24432
	
This song has two guitars playing in it but I have just tabbed
the dominant guitar parts (or should I say the only ones I know!!).
The intro to this song is played on an electric with overdrive.
However, the verses have a more cleaner sound and can be played 
on electric or acoustic guitars.

Intro 

e--------------------------------------------------------
b-------7-----------8------------9-----------8-----------
g----------7-----7-----7------------7-----------7--------
d----9--------9-----------9---9--------9--9--------9-----
a--------------------------------------------------------
e--------------------------------------------------------


e--------------------------------------------------------
b-------7-----------8------------9-----------8-----7-----
g----------7-----7-----7------------7-----------7--------
d----9--------9-----------9---9--------9--9--------------
a--------------------------------------------------------
e--------------------------------------------------------

[ Tab from: http://www.guitartabs.cc/tabs/s/seahorses/love_me_and_leave_me_tab_ver_2.html ]
e--------------------------------------------------------
b----2--2--2--3--3--3--3--3--3----2---2------------------
g----2--2--2--2--2--2--2--2--2----2---2------------------
d----2--2--2--2--2--2--2--2--2----2---2------------------
a----0--0--0--0--0--0--0--0--0----0---0------------------
e--------------------------------------------------------

Verse

Em7              A
Don't believe in Jesus

Dmaj7            G
Don't believe in Jah

Em                    F#7                                    Bm
Don't believe in the wars we fight just to prove how real we are

Fill

e-----------------------
b-----------------------
g-----------------------
d-----------------------
a---2---4---5-----------
e-----------------------

G            A7
I believe in lovers 

Dmaj7        G
I believe in friends

Em            F#7                                 Bm
I believe in heaven on earth 'til the beginning ends

Chorus

A
   Love me and leave me

E6  
   Love me and leave me

D                                    A
   Love me and leave me, leave me to love

                       D    Dm        A
Don't you ever tell me it,  came from above 

                 E9
Just love me and leave me 
                
            A      
Leave me to love 

(Here there is a kind of run down - see below. There are two guitars playinghere
but I have just tabbed one as I am not sure of the second guitar part.) 


e---------------------------------0--------------------------0-----------0-
b---------0-----------0-----------------------0-----------------0--------2-
g------2-----2-----2-----2-----2-----2-----2-----0--------1--------1-----2-
d---------------------------------------------------------------------2--2-
a---0--------------------------------------------------2-----------------0-
e---------------3-----------2-----------1-----------0----------------------
Comments