Seahorses - Love Me And Leave Me Chords & Tabs

 

Love Me And Leave Me Chords & Tabs

Seahorses Chords & Tabs

Version: 1 Type: Tab 0 ratings
1 star 2 stars 3 stars 4 stars 5 stars
comments

Love Me And Leave Me Tab

Love me and leave me(v1.1) - The Seahorses

Written by John Squire
Tab by Robert James (s9700578@chelt.ac.uk)
Let us know of any corrections you have.

E---2-----3-----4-----3-----2-----3-----4-----3------------------------
B----3-----3-----3-----3-----3-----3-----3-----3---2-2--2-3--3-3--2-2--
G-4---4-4---4-4---4-4---4-4---4-4---4-4---4-4---4--2-2--2-2--2-2--2-2--
D--------------------------------------------------2-2--2-4--4-4--2-2--
A----------------------------------------------------------------------
E----------------------------------------------------------------------

                                                   Mute a bit
E-3-----------------0----------2---------------------------------
B-3-----------------2-------2--2---------------------------------
G-0-----------------2-----2----2-------------------4----0h2p0----
D-2-----------------2----------0-------------------5----------4--
A--------------------------------------------------5-------------
E--------------------------------------------------3-------------
   Don't believe in Jesus         Don't believe in Jah
   I believe in heroes            I believe in stars

                                  mute        mute
E---------0--------0----------2---2-2------2--2-2------2---2----2---2-
B------------0--------0-------2---2-2------2--2-2------2---2h3--2---3-
G---------------------------------3-3---------3-3-------------------4-
D---------------2---------------------------------------------------4-
A-------------------------------------------------------------------2-
E-0----------------------2-------------0------------2-----------------
    don't believe in the wars we fight   just to prove how real we are
    I believe that we'll meet one day    say hello on some astral bar

                                                                    mute
E-2-2-2-------------------------0---------------------------------------
B-3-3-3----------7--------------2----2h3p2p0h2p0-2---------2------------
G-4-4-4---4-6-7--8--------------2----------------2-----------3p2-----4--
D-4-4-4---4------0--------------2----------------0---------------2---5--
A-2-2-2--------------------------------------------------------------5--
E--------------------------------------------------------------------3--
                  I believe in lovers              I believe in friends
                  I believe in brothers            you know who you are
[ Tab from: http://www.guitartabs.cc/tabs/s/seahorses/love_me_and_leave_me_tab.html ]
                                    mute             mute
E----------------0------0--------2--2-2-----------2--2-2---------
B------------------0------0------2--2-2-----------2--2-2---------
G-----0h2p0-------------------------3-3--------------3-3---------
D-----------4--------2-------------------------------------------
A----------------------------------------------------------------
E-------------0---------------2-------------0----------------2---
                I believe in heaven here on earth  till the, the
                here's to those who bore us and made us      what
    
     mute
E--2-2-2--2---2-----2-----3-----4-----5---------5--------------------------
B--2-2-2--2h3-2------3-----3-----3------5-5-5-5-5--------------------------
G----3-3----------4---4-4---4-4---4-4---7-7-7-6-6--------------------------
D---------------------------------------7-7-7-7-7--------------------------
A-----------------------------------------------7------------------2-------
E-----------------------------------------------5--------------------4-2-0-
  beggining ends                                love me and leave me
    we   are

E-4--4-----------4---------------------------------------------------
B-5----5-----------5-----------------7-------------------------------
G-4------4-----------4---------------7-7-6h7p6---9---7--6--6h7p6-----
D------------------------------------7--------7------------------7---
A----------------------------5h7p5h7---------------------------------
E-------------0-----------5h7----------------------------------------
   love me and leave me                love me and leave me, leave me

                                              mute bits
E----------------------------------------2-----2----------0-----5--
B-----5-----5-----5----------5-----3-----3-----2----------2-----5--
G------6-----6-----6-----------6-----4---2-----2----------2-----6--
D---7---7-6---6-5---5--------------------0-----0----------2-----6--
A---------------------------------------------------------0-----6--
E---------------------------------------------------------------5--
 to love          Don't you ever tell me it  came from above

E-------5---5--5---0---------------------------------------------------------
B-------5---5--5---0----------------------------------------15---------15/0--
G------------------1----------------9-------------------13--13---------13/0--
D------------------2---------9h10h11-11-9-11p10p9----------------------------
A------------------2------------------------------11p10h11-------------------
E------------------0---------------------------------------------------------
  just love me and leave me                                  leave me to love

first chorus ending
E-----------------------------------0------0-
B---5-----5-----5-----5---------------0----2-
G----5-----5-----5-----5----------1-----1--2-
D-7---7-7---7-7---7-7-----------2----------2-
A-----------------------------2------------0-
E-------------------------5/0----------------
  ...........................

last chorus ending
E-3---------------------------
B-3---------------------------
G-4---------------------------
D-5---------------------------
A-5---------------------------
E-3---------------------------
 ............................

E---------------0h1p0h1--------0h1p0-------------
B-2--2--0h1p0------------2--2--------1p0---3--3--
G-3--3-------------------3--3------------2-2--2--
D-0--0--------0----------0--0--------------0--0--
A------------------------------------------------
E------------------------------------------------ repeat until fades




Comments