Seahorses - Love Is The Law Chords & Tabs

 

Love Is The Law Chords & Tabs

Seahorses Chords & Tabs

Version: 1 Type: Bass Tab 0 ratings
1 star 2 stars 3 stars 4 stars 5 stars
comments

Love Is The Law Bass Tab

   
FTH80:GDAE ; Generated by Fast Tab, do not erase
====================
>From            : Jay Krause: dickhead@tosspot.co.uk
Artist          : Seahorses
Bass Performance: Love Is The Law
Comments:       : Not too taxing, just get the timing right.
---
Strings: E,A,D,G
====================
[ Tab from: http://www.guitartabs.cc/tabs/s/seahorses/love_is_the_law_btab.html ]
|  E  E  E  E  E  E  E  E  E  E  E  E  E  E  E  E  E  E  E  E  E  E  E  E  E  E
G----------------------------13-11----11---------------------------------------
D----13-16-15-13----11-13-14-------14----14-13-14-13-11-------------13-14-16---
A-14-------------12-------------------------------------14-------14----------12
E----------------------------------------------------------14-12---------------
>                                                                              

|  E  E  q  E  E  E  E  E  E  E  E  E  E  E  E  E  E  E  E
G----------13-11------------------------------------------
D-11-13-14-------14-13-14-13-11-------13-14-16----11-13-14
A-------------------------------14-14----------12---------
E---------------------------------------------------------

Comments