Seahorses - Falling Is Easy Chords & Tabs

 

Falling Is Easy Chords & Tabs

Seahorses Chords & Tabs

Version: 1 Type: Tab 0 ratings
1 star 2 stars 3 stars 4 stars 5 stars
comments

Falling Is Easy Tab

#----------------------------------PLEASE NOTE--------------------------------#
#This file is the author's own work and represents their interpretation of the#
#song. You may only use this file for private study, scholarship, or research.#
#-----------------------------------------------------------------------------#
#-- File created with Instab - http://www.pconline.com/~smcarey/instab.html --#
#-----------------------------------------------------------------------------#

Author/Artist: Seahorses
Title: Falling Is Easy
Album: Love Me And Leave Me (single)
Transcribed by: Tormod Bjontegaard
Email: bjontega@stud.ntnu.no

notations:
h - hammer on
p - pull off
/ - slide


For more tabs, visit:

http://www.stud.ntnu.no/~bjontega


Capo 2

------------------------------0----------------0-----------------0------------
---------------------------------0-----0----------0-----0----------0-----0----
------------------------------------0----------------0----------------0-------
----------------------2--------------------2---------------0------------------
-0-2-3---------9-10-----------------------------------------------------------
-------2/7-7------------------------------------------------------------------
                      Shadows off      the clouds,         drift across the   

---0-------------------0-----------------0-----------0-------0--------0-------
-----0-----0---------------0-----0----------0---0------0---4---4-0------0-----
--------0---------------------0---------------0---------------------------0---
-0---------------------------------------------------------1-4------2---------
-----------------3-------------------3-------------2--------------------------
------------------------------------------------------------------------------
 ground. And I'm wondering if you're looking up at me___.           Falling   

-------0--------------0---------------0------------------0----------0---------
-0--------0-----0--------0-----0---------0-----0-----------0---0------0---0---
-------------0--------------0---------------0----------------0----------0-----
----2--------------0---------------0------------------------------------------
------------------------------------------------------3-----------3-----------
------------------------------------------------------------------------------
 is easy, when you haven't got the time,          for terminal velocity.      

----0--------0----------------2-------3p2---0h2p0----0----0----------------0--
------0----4----4-0-------------------0---------------------1--0h1------------
----------------------------------2---------------------------------2---------
-----------1-4--------------0-------0-----0--------0--------------------------
-2-----------------------------------------------------0----------------------
------------------------------------------------------------------------------
                            Holding                 my breath, is something I 

---------0--------------2p0------------0--------2-----------2----------2------
-1---0-----0------------------0---0-------------0--3--2h3-0---3-0---------3---
------------------------------------------------------------------------------
------------------------------------------------------4-----4-------0--4------
---0----------------------------------------2---------------------------------
-------0----------------------------------------------------------------------
 did best.   You should see the dephts I've been.                   Half      

-3p2---0h2p0---0---0------------------0---------0------2p0--------0-----------
-----3---------------1-----0h1----------1---0-----0---------0--3--------------
------------------------------------------------------------------------------
-------------0----------------------------2-----2-----------------------------
-----------------0---------------0--------------------------------------------
----------------------------------------------0-------------------------------
 scared      to death, the other half such a mess. This morning I was clean.  
[ Tab from: http://www.guitartabs.cc/tabs/s/seahorses/falling_is_easy_tab.html ]
----2------------2--------------------------------------------------------2-2-
----3--3--2h3-0----3-0--4-4-4-5-4------------------------------------1-1--4-4-
---------------------------------------------1-1-1-2-2-2-1-1-1--1-1--2-2--4-4-
-4----------------------4-4-4-5-4------------2-2-2-2-2-2-2-2-2--2-2--2-2--4-4-
---------------------------------------------2-2-2-2-2-2-2-2-2--2-2--0-0--2-2-
---------------------------------------------0-0-0-0-0-0-0-0-0--0-0-----------
                                        It's such_____        such a long way 

-3--3--3---2-------------------------------------------2-2-0-0-2-2----2-------
-4--4--4---4----1--------------------------------------3-3-3-3-3-3----3-------
-5--5--5---4----2---1-1-1-2-2-2-1-1-1---1----1---1--1--2-2-2-2-2-2----2-------
-5--5--5---4----2---2-2-2-2-2-2-2-2-2---2----2---2--2--0-0-0-0-0-0----0-------
-3--3--3---2----0---2-2-2-2-2-2-2-2-2---2----2---2--2-------------------------
--------------------0-0-0-0-0-0-0-0-0---0----0---0--0-------------------------
 down, now that I'm falling.          When I should be hanging round, what    

-0---0----0---0-0-0-0---------0---0---0---2-2-2-3-3-3-2-2---2----0--0--0------
-2---2--2-2-0-0-2-2-2---------1---1---1---1-1-1-1-1-1-1-1---1----1--1--1------
-3---3--2-2-2-2-2-2-2---------0---0---0---0-0-0-0-0-0-0-0---0----0--0--0------
-2---2--2-2-2-2-2-2-2---------2---2---2---2-2-2-2-2-2-2-2---2----2--2--2------
--------0-0-0-0-0-0-0---------------------------------------------------------
------------------------------------------------------------------------------
 did they   do wrong?  When you look up high,           you look up to the    

-2-2-2-3-3------3---2---0--------------------------------------2-2-2-2-2-2----
-1-1-1-1-1------1---1---1----0-0-0-0-0-0-0-0-0--0---0---0--0---3-3-3-3-3-3----
-0-0-0-0-0------0---0---0----1-1-1-2-2-2-1-1-1--1---1---1--1---2-2-2-2-2-2----
-2-2-2-2-2------2---2---2----2-2-2-2-2-2-2-2-2--2---2---2--2---0-0-0-0-0-0----
-----------------------------2-2-2-2-2-2-2-2-2--2---2---2--2------------------
------------------------------------------------------------------------------
 sky,      just ask yourself why.            You're waving goodbye.....       

----0-0-0-0-0-0-0--------------------------------------2-2-2--2-2-2-2----0-0--
----3-3-3-3-3-3-3----0-0-0-0-0-0-0-0-0--0-0-0-0--------3-3-3--3-3-3-3----3-3--
----2-2-2-2-2-2-2----1-1-1-2-2-2-1-1-1--1-1-1-1--------2-2-2--2-2-2-2----2-2--
----0-0-0-0-0-0-0----2-2-2-2-2-2-2-2-2--2-2-2-2--------0-0-0--0-0-0-0----0-0--
-0-------------------2-2-2-2-2-2-2-2-2--2-2-2-2-------------------------------
------------------------------------------------------------------------------
                                        You're waving goodbye......           

-0-0-0-0-0------------------------------------0---------------0---------------
-3-3-3-3-3-0-------------------------------------0-----0--------0-------------
-2-2-2-2-2-1----------------------------------------0-------------0-----------
-0-0-0-0-0-2---------------------------2--------------------2----------0------
-----------2-------0-2-3---------9-10-----------------------------------------
--------------------------2-4/7-----------------------------------------------
                                       Lately I  have found,        forever   

-0-----------0------------0----------0---------0------------------------------
----0----0-----0---0--------0---0------0---0-----0-----4----------------------
-------0---------0------------0----------0------------------------------------
-----------0-------------------------------------------1----------------------
------------------------3----------3---------2-----2--------------------------
------------------------------------------------------------------------------
 looking down        is going to   be the    death     of me___               

-4-0--4----4-4-2----0--2---2-2--------0-4---4-4-2----0--2--2-2------0-5--4-4--
-5-0----0--0-0------0--0---3-3-0------0-5---0-0------0--0--3-3-0----0-4--0-0--
------------------------------------------------------------------------------
------------------2--------------------------------2--------------------------
------------------------------------------------------------------------------
------------------------------------0-----------------------------0-----------
                                                                              

-2---0-2--2-2-------0-0---0-0-------0-2--2-2-------0--------------------------
-----0-0--3-3-0-----5-5---5-5-3-----0-3--3-3-0-----0--------------------------
---------------------------------------------------1--------------------------
---2-----------------------------0-----------------2--------------------------
------------------3--------------------------------2--------------------------
------------------------------------------------------------------------------
                                                                              




Comments