Seahorses - Dreamer Chords & Tabs

 

Dreamer Chords & Tabs

Seahorses Chords & Tabs

Version: 1 Type: Tab 0 ratings
1 star 2 stars 3 stars 4 stars 5 stars
comments

Dreamer Tab

   
Dreamer(v1.0) - The SeaHorses

Written By John Squire
Tab by Robert James (s9700578@chelt.ac.uk)
Let us know of any corrections you have.


E-0-----2-----3-----2-3-2-----0-----2-----3-----2-3-2-----
B-1-----1-----1-----1-1-1-----1-----1-----1-----1-1-1-----
G-2-----2-----2-----2-2-2--0--2-----2-----2-----2-2-2--0--
D-2-----2-----2-----2-2-2--0--2-----2-----2-----2-2-2--0--
A---------------------------------------------------------
E---------------------------------------------------------

E-0-----2-----3-----2-3-2-----0-----2-----3-----2-3-2-----
B-1-----1-----1-----1-1-1-----1-----1-----1-----1-1-1-----
G-2-----2-----2-----2-2-2--0--2-----2-----2-----2-2-2-----
D-2-----2-----2-----2-2-2--0--2-----2-----2-----2-2-2-----
A---------------------------------------------------------
E---------------------------------------------------------

E--2----------------3--------------2---------------3---------
B--3----------------3--------------3---------------3---------
G--2----------------0---------0----2---------------0---------
D--0----------------0-----0H2---0--0---------------0---------
A-------------------2------------------------------2---------
E-------------------3------------------------------3---------
    d                                    dmaj7
E-2-------2---------2------------2-------2-------2-----------
B-3--------------------3---------2------------------2--------
G-2-----------------------2------2---------------------2-----
D-0--------------------------0---0------------------------0--
A------------------------------------------------------------
E------------------------------------------------------------
  Find yourself within a picture painted in a dream
  Find it hard to understand the things you said to me

                                (Strum and mute with palm)
E-2-------2----2---------------2------------------------------
B-1---------------1------------4------------------------------
G-2------------------2---------4------------------------------
D-0--------------------0-------4------------------------------
A------------------------------2------------------------------
E------------------------------2------------------------------
  blowing ever Knowing, no you don't know where you've been
  I never dream of pictures so I don't know what you mean

E-3--3----------------1--1-----------------0--------0-----
B-3-----3-------------1-----1--------------0--------0-----
G-0--------0h2p0------2--------2--0h2p0----0--------1-----
D-0---------------2---3-----------------2--2--------2-----
A-2-------------------3--------------------2--------2-----
E-3-------------------1--------------------0--------0-----
    voices coming and going as you wake at dawn  
    voices coming and going as you wake at dawn 
                             
E----------------------------5------5---5------5------5---5---3--
B----------------------------5------5---5------5------5---5---5--
G-----1--------2------3--6---6--5h6-5-5-5--6---6--5h6-5-5-5---5--
D------------------------7-----------------7------------------5--
A------------------------7-----------------7------------------3--
E------------------------5-----------------5------------------3--
  you know their telling me   it won't be long
  you know their telling me   it won't be long
[ Tab from: http://www.guitartabs.cc/tabs/s/seahorses/dreamer_tab.html ]
E----------------3----------------3------1-------------0------0----------
B----------------5----------------3------1-------------0------0----------
G----------------5----------------4------2-------------0------1--1--2--4-
D----------------5----------------5------3-------------2------2----------
A----------------3----------------5------3-------------2------2----------
E----------------3----------------3------1-------------0------0----------
  oh it won't be long so don't be long        don't be long
  so it won't be long so sing your song       sing your song    

                                          (strum and mute)
E-2--------------2------------2-----------0-------------------
B-3--------------2------------1-----------1-------------------
G-2--------------2------------2-----------0-------------------
D-0--------------0------------0-----------2-------------------
A-----------------------------------------3-------------------
E-----------------------------------------3-------------------
  la   la di da da   la di da da   la da da

E-----3--3----------------1--1-----------------0--------0-----------
B-----3-----3-------------1-----1--------------0--------0-----------
G-----0--------0h2p0------2--------2--0h2p0----0--------1--1--2--4--
D-----0---------------2---3-----------------2--2--------2-----------
A-----2-------------------3--------------------2--------2-----------
E-----3-------------------1--------------------0--------0-----------
  da da        la di da da             la di da
 
E-------------------------5---------------------------5-------------
B---5-6-8-6-5-------5-6-8---8-6p5h6p5---5-6-8-6-5-------8-6p5-6-5-6-
G-7-----------7-5-7-------------------7-----------7-5---------------
D-------------------------------------------------------------------
A-------------------------------------------------------------------
E-------------------------------------------------------------------
                        you wake at dawn

E-------------------------------5---------------------------
B-8-6-5---5-6-8-6-5-------5-6-8---8-6p5h6p5---5-6-8-6-5-----
G-------7-----------7-5-7-------------------7-----------7-5-
D-----------------------------------------------------------
A-----------------------------------------------------------
E-----------------------------------------------------------
                              you wake at dawn

E-------------------------------------12----15---------------------------
B----------12----12-13-12-13-15-13-15----------15-13h15p12--13p12--------
G-14-12-14----14--------------------------------------------------12-----
D--------------------------------------------------------------------12--
A------------------------------------------------------------------------
E------------------------------------------------------------------------

E-2-----2-----2-----0-----------3--3---1-----0-----0----------0---
B-3-----2-----1-----1-----------3---3--1-----0-----0------3-----2-
G-2-----2-----2-----0--0h2p0----0------2-----0-----1----2---2-----
D-0-----0-----0-----2--------2--0------3-----2-----2--------------
A-------------------3-----------2------3-----2-----2--------------
E-------------------3-----------3------1-----0-----0--------------

E-5-3-4-----4-----4-2-3-----3-2-0----2-
B-------3-----3---------3---------3--3-
G---------2-----2---------0----------2-
D------------------------------------0-
A--------------------------------------
E--------------------------------------




Comments