Seahorses - Blinded By The Sun Chords & Tabs

 

Blinded By The Sun Chords & Tabs

Seahorses Chords & Tabs

Version: 1 Type: Tab 0 ratings
1 star 2 stars 3 stars 4 stars 5 stars
comments

Blinded By The Sun Tab

#----------------------------------PLEASE NOTE--------------------------------#
#This file is the author's own work and represents their interpretation of the#
#song. You may only use this file for private study, scholarship, or research.#
#-----------------------------------------------------------------------------#

Date: Fri, 08 May 1998 21:38:41 +0100
From: Robert Bacon 
Subject: s/seahorses/blinded_by_the_sun.tab

Blinded By The Sun
    by The "Seahorses"
    Written by Chris Helme
    off the album "do-it-yourself" on Geffen records
    Catologoue No. GED-25134
    Transcribed by Darren Williams 8/5/98 
(Technocad_uk@postmaster.co.uk) 
[ Tab from: http://www.guitartabs.cc/tabs/s/seahorses/blinded_by_the_sun_tab.html ]
Tablature Legend:
16   :Play string on fret indicated
16~~~   :Vibrato
16vvv   :Wide vibrato
16 (16) :Let note ring out
(16)    :Ghost note
2h3     :Hammer-on 2nd note
3p2     :pull-off 1st note to sound the 2nd
5b(7)   :play 1st note and bend to pitch indidcated in brackets
5sb(7)  :As above only bend slower
(7)r5   :Release bent note
3/6     :Play 1st note and slide up to 2nd note
6\3     :Play 1st note and slide down to 2nd note
6 \ 3   :Slow slide
(x)     :Muted string (percussive sound)
*15     :Pinched Harmonic  
@7      :Natural Harmonic
____________________________________________________________________
  (Guitar 1) John Squire's Lead & fills played with mild distortion
             and flanger f/x
      Intro
E|-----------------------------------------------------------|
B|-----------------14----------------------------------------|
G|--------------14----14---------13b(14)r13---13---\11-------|
D|------16---16----------16----------------------------11----|
A|--(16)--------------------------------------------------12-|
E|-----------------------------------------------------------|


E|--------------------|----------------------------------17-------------|
B|--------------------|---------------14----17(---hold---)--------------|
G|--------------------|------------14----14-16sb(18)~~~~~~~(18)sr16~~~~-|
D|------------14-h-16-|-14h16---16--------------------------------------|
A|---12-14/16---------|-------------------------------------------------|
E|--------------------|-------------------------------------------------|

                                                 
Comments