Seafood - Pleasurehead Chords & Tabs

 

Pleasurehead Chords & Tabs

Seafood Chords & Tabs

Version: 1 Type: Tab 0 ratings
1 star 2 stars 3 stars 4 stars 5 stars
comments

Pleasurehead Tab

   
Track: Pleasurehead
Artist: Seafood
Album: When Do We Start Fighting?
Tabbed by: Dave The Bookie dave_the_bookie@hotmail.com

I can only describe this song as ‘Beautiful’

Standard Tuning (high to low): E B G D A E

Intro

Riff 1 - Gtr.1

|-------------------------------------|
|------0-------0-------0-------0------|
|----4---4---2---2---0-------0--------|
|--0-------0-------4-----4-2-----2----|
|-------------------------------------|
|-------------------------------------|

Riff 2 - Gtr.1

|-------------------------------------|
|------0-------0-------0-------0------|
|----0-------0-------0-------0--------|
|--4-----4-2-----2-4-----4-2----------|
|-------------------------------------|
|-------------------------------------|

Gtr.2

|-------------------------------------|
|------0-------0-------0-------0------|
|----0-------0-------0-------0--------|
|--0-----0-2-----2-0-----0-2----------|
|-------------------------------------|
|-------------------------------------|

Gtr.1

|-------------------------|
|--0------0-0-0-----------|
|--0-.----0-0-0-.---------|
|--0-.----0-0-0-.---x2----|
|--x------x-x-x-----------|
|--3------3-3-3-----------|

Gtr.2

|-----------|
|-----------|
|----.------|
|--0-.------|
|-----------|
|-----------|

Riff 3 - Gtr.1

|---------------------------------------|
|---------------------------------------|
|-----4-2-0---------4-2-0---------------|
|--0--------4-2-0-0-------4-2-4---etc.--|
|---------------------------------------|
|---------------------------------------|

Gtr.2 continues with riff 2

Both guitars then play a G, and the bass opens up the verse.

Verse

Just mess about with these four chords

   G   D   C   Em7
|------------------|
|--0---3---1---0---|
|--0---2---0---0---|
|--0---0---2---0---|
|--x---0---3---2---|
|--3---------------|

Somewhere along the verse add this:
[ Tab from: http://www.guitartabs.cc/tabs/s/seafood/pleasurehead_tab.html ]
|-------------------|
|--0000000000000----|
|--4444444444444----|
|--5555555555555----|
|-------------------|
|-------------------|

Chorus

Gtr.1

   C        Em7
|---------|------------|
|--1------|--0---------|
|--0------|--4---------|
|--x------|--5---------|
|--3------|------------|
|---------|------------|

Gtr.2

|-------------0------------------3---------------3--------|
|---------3-------3----------0-----0---0-----0-----0---0--|
|------0----0-------0------0---0-----0-----0---0-----0----|
|----0----------------0-----------------------------------|
|--3------------3--------2---------------2----------------|
|---------------------------------------------------------|

Bridge

Gtr.1 w/chorus and delay

|------------------------------|
|---------3------1------0------|
|--0------2-.----0-.----0-.----|
|--0-.----0-.----2-.----0-.----|
|--x-.----0------3------2------|
|--3---------------------------|

2nd Verse – Same as 1st verse except:

Gtr.2

|--3------0--------------------|
|--0------3------1------0------|
|---------0------0------0------|
|------------------------------|
|------------------------------|
|------------------------------|

Outro

Gtr.2 plays C5 and G5 to the end

Gtr.1 plays this to the end:

|-----------------------------------------------------
|-----------------------------------0-0-0-0-0-0-0-0---
|--121212121212121212121212111111111212121212121212---
|-----------------------------------------------------
|-----------------------------------------------------
|-----------------------------------------------------

-----------------------|
-----------------------|
--1414141414/161616----|
-----------------------|
-----------------------|
-----------------------|

Gtr.3

|----------------------------------|
|----------------------------------|
|----------------------------------|
|--10-9------------------12-9------|
|-------10--10-10--12-12------10---|
|----------------------------------|

End on C
Comments