Seafood - Desert Stretched Before The Sun Chords & Tabs

 

Desert Stretched Before The Sun Chords & Tabs

Seafood Chords & Tabs

Version: 1 Type: Tab 0 ratings
1 star 2 stars 3 stars 4 stars 5 stars
comments

Desert Stretched Before The Sun Tab


This is my first tab, so sorry if it aint great, but heres the
small bit of this song that i tabbed from a fantastic up and coming band
seafood-

Like a desert stretched before the sun

If you have a cappo place it on 2, i dont though
[ Tab from: http://www.guitartabs.cc/tabs/s/seafood/desert_stretched_before_the_sun_tab.html ]
e---------------------------------
B---------------------------------
G---------------------------------
D------6--6-6-----7----9-9-9-9-9-9
A------4--4-4-----5----7-7-7-7-7-7
E---4--4--4-4--5--5--7-7-7-7-7-7-7

A----------11-------11 
E----------12-------11

And its cold, out here

any comments peoplecity@hotmail.com
Tabbed by gelbison- adam bales
Comments