Seafood - Cloaking Chords & Tabs

 

Cloaking Chords & Tabs

Seafood Chords & Tabs

Version: 1 Type: Bass Tab 0 ratings
1 star 2 stars 3 stars 4 stars 5 stars
comments

Cloaking Bass Tab

   
I am shocked to see this is the first seafood tab., cmon ppl add more!!!!!!!


Seafood - Cloaking

Bass Intro

G------------------------------------------|
D------------------------------------------|
A-------------------4-4-4-3-3-3-3-3-3-3----|
E-0h2-2-2-2-2-2-2-2------------------------|

 then guitar kicks in with

 F#      C

Verse (listen to song for timing)

just bass with an effect in the background

G-------------------------------------------|
D-------------------------------------------|
A-------------------------------5-5-5-5-5-5-|
E-0h2-2-2-2-2-2-2-2-3-3-3-3-3-3-------------|

And everybody cloaking in and out
Working from the same advice
Everybody got their lies to shout
I didn't listen when they gave the prize


Bridge

guitar plays - F#        B

with same bass line in background
[ Tab from: http://www.guitartabs.cc/tabs/s/seafood/cloaking_btab.html ]
So keep on running from the quiet life
This silence wasn't meant for you
It doesn't matter where you put yourself
You'll find there's nothing to hold on to

Chorus

guitar plays - F#     c

Bass plays same as intro

Get up, get up, get up, get up soldier
You got your head screwed on
Nobody change this, nobody change this

Link

F#                      C
I can make me count, I gotta make this count...


Verse (same as verse 1)

Chorus (same as chorus 1)

Instrumental

Bass plays

G-------------------------------------------------------------|
D-------------------------------------------------------------|        x2
A-5-5-5-5-5-5-6-6-6-6-6-6-7-7-7-7-7-7-8-8-8-8-8-8-8-8---------|
E-------------------------------------------------------------|

guitar 1 plays

D      D#       E        F        x2

guitar 2 plays

F#              B

F#              C

F#              Bb

F#              C#(let ring)

Chorus x 2

Great Song

Enjoy!
Comments