Screeching Weasel - Video Chords & Tabs

 

Video Chords & Tabs

Screeching Weasel Chords & Tabs

Version: 1 Type: Tab 0 ratings
1 star 2 stars 3 stars 4 stars 5 stars
comments

Video Tab

-------------------------------------------------------------------------------
                               VIDEO - Screeching Weasel
-------------------------------------------------------------------------------


intro/verse:
e|------------------------|
B|------------------------|
G|--9--11-----------------|
D|--9--11--11--9---(2x)---|
A|--7--9---11--9----------|
E|---------9---7----------|

chorus:
e|--------------------------------------------------------|
B|--------------------------------------------------------|
G|----------9-------------9-------------9-------------9---|
D|--7--9----9--11--7--9---9--11--7--9---9--11--7--9---9---|
A|--7--9----7--11--7--9---7--11--7--9---7--11--7--9---7---|
E|--5--7-------9---5--7------9---5--7------9---5--7-------|

verse:
e|------------------------|
B|------------------------|
G|--9--11-----------------|
D|--9--11--11--9---(2x)---|
A|--7--9---11--9----------|
E|---------9---7----------|
[ Tab from: http://www.guitartabs.cc/tabs/s/screeching_weasel/video_tab.html ]
chorus:
e|--------------------------------------------------------|
B|--------------------------------------------------------|
G|----------9-------------9-------------9-------------9---|
D|--7--9----9--11--7--9---9--11--7--9---9--11--7--9---9---|
A|--7--9----7--11--7--9---7--11--7--9---7--11--7--9---7---|
E|--5--7-------9---5--7------9---5--7------9---5--7-------|

bridge:
e|----------------------|
B|----------------------|
G|-----9--7-------------|
D|--9--9--7--7---(8x)---|
A|--9--7--5--7----------|
E|--7--------5----------|

verse:
e|------------------------|
B|------------------------|
G|--9--11-----------------|
D|--9--11--11--9---(2x)---|
A|--7--9---11--9----------|
E|---------9---7----------|

chorus/outro:
e|---------------------------------------------------------------|
B|---------------------------------------------------------------|
G|----------9-------------9-------------9-------------9----------|
D|--7--9----9--11--7--9---9--11--7--9---9--11--7--9---9---(2x)---|
A|--7--9----7--11--7--9---7--11--7--9---7--11--7--9---7----------|
E|--5--7-------9---5--7------9---5--7------9---5--7--------------|

Solo: If you wanna call it that :P
E|-----------------|
B|-00000000000000--|
G|-----------------|
D|-----------------|
A|-----------------|
E|-----------------|
Comments