Screeching Weasel - Sunshine Chords & Tabs

 

Sunshine Chords & Tabs

Screeching Weasel Chords & Tabs

Version: 1 Type: Tab 0 ratings
1 star 2 stars 3 stars 4 stars 5 stars
comments

Sunshine Tab

Tabbed by : Matt shepard
Song : Sunshine

Intro : x2
| --------------- |
| --------------- |
| --11----------- |
| --11----11----- |
| --9-----11----- |
| --------9------ |

Verse : x2
| ---------------------------------------------------------------- |
| ---------------------------------------------------------------- |
| --11------11---------------------------------------------------- |
| --11--11--11-----11--13--11--9--11--13--11--9-----9--11--11----- |
| --9---11--9------11--13--11--9--11--13--11--9-----9--11--11----- |
| ------9----------9---11--9---7--9---11--9---7-----7--9---9------ |

Chorus : 
| --------------------------------------------------------------------- |
| --------------------------------------------------------------------- |
| --------11--11----------11--11--------11--11----------11------11----- |
| --9--9--11--11--11--11--11--11--9--9--11--11--11--11--11--11--11----- |
| --9--9--9---9---11--11--9---9---9--9--9---9---11--11--9---11--9------ |
| --7--7----------9---9-----------7--7----------9---9-------9---------- |
[ Tab from: http://www.guitartabs.cc/tabs/s/screeching_weasel/sunshine_tab.html ]
Verse : 
| ---------------------------------------------------------------- |
| ---------------------------------------------------------------- |
| --11------11---------------------------------------------------- |
| --11--11--11-----11--13--11--9--11--13--11--9-----9--11--11----- |
| --9---11--9------11--13--11--9--11--13--11--9-----9--11--11----- |
| ------9----------9---11--9---7--9---11--9---7-----7--9---9------ |

Chorus : 
| --------------------------------------------------------------------- |
| --------------------------------------------------------------------- |
| --------11--11----------11--11--------11--11----------11------11----- |
| --9--9--11--11--11--11--11--11--9--9--11--11--11--11--11--11--11----- |
| --9--9--9---9---11--11--9---9---9--9--9---9---11--11--9---11--9------ |
| --7--7----------9---9-----------7--7----------9---9-------9---------- |

Bridge : x10   Palm mute the fist 4 times
| -------------------- |
| -------------------- |
| --11---------------- |
| --11--11--13--9----- |
| --9---11--13--9----- |
| ------9---11--7----- |

Solo thingy :
|----------------------------------| 
|----------------------------------| 
|----------------------------------| 
|----------------------9-----------| X 8 
|-9-9-9-11-11-11-13-13---13-11-----| 
|----------------------------------| 
then 

|----------------| 
|----------------| 
|----------------| 
|----------------|  
|-8-9-9-9-9-9----| 
|----------------|
Comments